Log in

One click and you are in

Login with Facebook Login with Google

Why sign up and log in

Guitar Tabs Explorer
Chris Brown guitar tabs for Dont check on me

Guitar tabs

Tuning: Standard (E A D G B E)

Key: A chord diagramG MajorG

Difficulty: Intermediate
Intro:

   A chord diagramC majorC           A chord diagramG MajorG           A chord diagramC majorC          A chord diagramG MajorG           A chord diagramC majorC          A chord diagramG MajorG        A chord diagramE MajorE        A chord diagramD MajorD
e|------------------------------------------------------------------------------------------|
B|-----3h5--3-----------------3h5--3---------------------3h5--3-----------------------------|
G|-------------4-----4----------------4-----4h5p4----------------4-----4--------5--------5--|
D|---------------------------------------------------------------------------4--------4-----|
A|--3----------------------3--------------------------3----------------------------4--------|
E|-------------3--3-------------------3--3-----------------------3--3-----0-----------------|


Verse:

   A chord diagramC majorC           A chord diagramG MajorG           A chord diagramC majorC          A chord diagramG MajorG           A chord diagramC majorC          A chord diagramG MajorG        A chord diagramE MajorE        A chord diagramD MajorD
e|------------------------------------------------------------------------------------------| x2
B|-----3h5--3-----------------3h5--3---------------------3h5--3-----------------------------|
G|-------------4-----4----------------4-----4h5p4----------------4-----4--------5--------5--|
D|---------------------------------------------------------------------------4--------4-----|
A|--3----------------------3--------------------------3----------------------------4--------|
E|-------------3--3-------------------3--3-----------------------3--3-----0-----------------|


Pre-Chorus:

   A chord diagramC majorC           A chord diagramG MajorG           A chord diagramC majorC          A chord diagramG MajorG           A chord diagramC majorC          A chord diagramG MajorG        A chord diagramE MajorE        A chord diagramD MajorD
e|------------------------------------------------------------------------------------------|
B|-----3h5--3-----------------3h5--3---------------------3h5--3-----------------------------|
G|-------------4-----4----------------4-----4h5p4----------------4-----4--------5--------5--|
D|---------------------------------------------------------------------------4--------4-----|
A|--3----------------------3--------------------------3----------------------------4--------|
E|-------------3--3-------------------3--3-----------------------3--3-----0-----------------|

   A chord diagramC majorC           A chord diagramG MajorG           A chord diagramC majorC          A chord diagramG MajorG           A chord diagramC majorC          A chord diagramG MajorG        A chord diagramE MajorE        A chord diagramD MajorD
e|------------------------------------------------------------------------------------------|
B|-----3h5--3-----------------3h5--3---------------------3h5--3-----------------------------|
G|-------------4-----4----------------4-----4h5p4----------------4-----4--------5--------5--|
D|---------------------------------------------------------------------------4--------4-----|
A|--3----------------------3--------------------------3----------------------------4--------|
E|-------------3--3-------------------3--3-----------------------3--3-----0-----------------|


Verse 2:

   A chord diagramC majorC           A chord diagramG MajorG           A chord diagramC majorC          A chord diagramG MajorG           A chord diagramC majorC          A chord diagramG MajorG        A chord diagramE MajorE        A chord diagramD MajorD
e|------------------------------------------------------------------------------------------| x4
B|-----3h5--3-----------------3h5--3---------------------3h5--3-----------------------------|
G|-------------4-----4----------------4-----4h5p4----------------4-----4--------5--------5--|
D|---------------------------------------------------------------------------4--------4-----|
A|--3----------------------3--------------------------3----------------------------4--------|
E|-------------3--3-------------------3--3-----------------------3--3-----0-----------------|

   A chord diagramC majorC           A chord diagramG MajorG           A chord diagramC majorC          A chord diagramG MajorG           A chord diagramC majorC          A chord diagramG MajorG        A chord diagramE MajorE        A chord diagramD MajorD
e|------------------------------------------------------------------------------------------|
B|-----3h5--3-----------------3h5--3---------------------3h5--3-----------------------------|
G|-------------4-----4----------------4-----4h5p4----------------4-----4--------5--------5--|
D|---------------------------------------------------------------------------4--------4-----|
A|--3----------------------3--------------------------3----------------------------4--------|
E|-------------3--3-------------------3--3-----------------------3--3-----0-----------------|


Verse 3:

   A chord diagramC majorC           A chord diagramG MajorG           A chord diagramC majorC          A chord diagramG MajorG           A chord diagramC majorC          A chord diagramG MajorG        A chord diagramE MajorE        A chord diagramD MajorD
e|------------------------------------------------------------------------------------------| x2
B|-----3h5--3-----------------3h5--3---------------------3h5--3-----------------------------|
G|-------------4-----4----------------4-----4h5p4----------------4-----4--------5--------5--|
D|---------------------------------------------------------------------------4--------4-----|
A|--3----------------------3--------------------------3----------------------------4--------|
E|-------------3--3-------------------3--3-----------------------3--3-----0-----------------|


Pre-Chorus:

   A chord diagramC majorC           A chord diagramG MajorG           A chord diagramC majorC          A chord diagramG MajorG           A chord diagramC majorC          A chord diagramG MajorG        A chord diagramE MajorE        A chord diagramD MajorD
e|------------------------------------------------------------------------------------------|
B|-----3h5--3-----------------3h5--3---------------------3h5--3-----------------------------|
G|-------------4-----4----------------4-----4h5p4----------------4-----4--------5--------5--|
D|---------------------------------------------------------------------------4--------4-----|
A|--3----------------------3--------------------------3----------------------------4--------|
E|-------------3--3-------------------3--3-----------------------3--3-----0-----------------|

   A chord diagramC majorC           A chord diagramG MajorG           A chord diagramC majorC          A chord diagramG MajorG           A chord diagramC majorC          A chord diagramG MajorG        A chord diagramE MajorE        A chord diagramD MajorD
e|------------------------------------------------------------------------------------------| x2
B|-----3h5--3-----------------3h5--3---------------------3h5--3-----------------------------|
G|-------------4-----4----------------4-----4h5p4----------------4-----4--------5--------5--|
D|---------------------------------------------------------------------------4--------4-----|
A|--3----------------------3--------------------------3----------------------------4--------|
E|-------------3--3-------------------3--3-----------------------3--3-----0-----------------|


Outro:

   A chord diagramC majorC           A chord diagramG MajorG           A chord diagramC majorC          A chord diagramG MajorG           A chord diagramC majorC          A chord diagramG MajorG        A chord diagramE MajorE        A chord diagramD MajorD
e|------------------------------------------------------------------------------------------| x2
B|-----3h5--3-----------------3h5--3---------------------3h5--3-----------------------------|
G|-------------4-----4----------------4-----4h5p4----------------4-----4--------5--------5--|
D|---------------------------------------------------------------------------4--------4-----|
A|--3----------------------3--------------------------3----------------------------4--------|
E|-------------3--3-------------------3--3-----------------------3--3-----0-----------------|



************************************

| h  Hammer-on
| p  Pull-off

************************************

Other versions of Don't Check On Me

Don't Check on MeChords
Don't Check on Me (feat Justin Bieber And Ink)Chords
Don't Check on Me - IntroTabs

Almost there ...

Sign in to get your own page with links to favourite songs and more. You are just one click away...

Login with Facebook Login with Google