Log in

One click and you are in

Login with Facebook Login with Google

Why sign up and log in

Guitar Tabs Explorer
Brown Bird guitar tabs for Fingers to the bone

Guitar tabs with lyrics

Fingers to the Bone - Brown Bird

This is tabbed for a single guitar playing both the banjo and bass.


INTRO & INSTRUMENTAL:
   A chord diagramE minor 7Em7
   |           |           |           |
e|----------------0--------0h2--0------------0-----|
G|-------0-----3-----0-------------0---3-----------|
B|-------------------------------------------------|
D|-------2-----------2-------------2---------------|  (x3)
A|-------------------------------------------------|
E|-0-----------3-----------0-----------3-----2-----|

e|-------------------0-----------------------------|
B|-------0-----3-----------0-----------------------|
G|-------------------------------2-----0-----------|
D|-------2-----------2-----------------------4-----|  (x1)
A|-------------------------------0-----------------|
E|-0-----------3-----------0-----------3-----2-----|


Verse
   A chord diagramE minorEm
e|-------0-----------0-----------0-----------0-----|
B|-------0-----------0-----------0-----------0-----|
G|-------0-----------0-----------0-----------0-----|
D|-------------------------------------------0-----|  (x3)
A|-------------------------------------------------|
E|-0-----------3-----------0-----------3-----2-----|
   |           |           |           |
   A chord diagramB7B7
e|-------2--------2-----2--------------------------|
B|-------0--------0-----0--------------------------|
G|-------2--------2-----2--------------------------|
D|-------------------1-----------------------------|
A|-2-----------2-----------2-----0-----------------|
E|-------------------------------------3-----2-----|
   |           |           |           |

   A chord diagramE minorEm
e|-------0--------0-----0--------0--------0-----0--|
B|-------0--------0-----0--------0--------0-----0--|
G|-------0--------0-----0--------0--------0-----0--|
D|-------------------2-----------------------------|
A|-------------------------------------------------|
E|-0-----------3-----------0-----------3-----2-----|
   |           |           |           |

   A chord diagramA majorA
e|-------0--------0-----0--------0--------0-----0--|
B|-------2--------2-----2--------2--------2-----0--|
G|-------2--------2-----2--------2--------2-----0--|
D|-------------------2-----------------------2-----|
A|-0-----------0-----------0-----------0-----------|
E|-------------------------------------------------|

   A chord diagramE minorEm
e|-------0--------0-----0--------0--------0-----0--|
B|-------0--------0-----0--------0--------0-----0--|
G|-------0--------0-----0--------0--------0-----0--|
D|-------------------2-----------------------2-----|
A|-------------------------2-----------2-----------|
E|-0-----------3-----------------------------------|


VERSE:
               A chord diagramE minorEm
I ve worked my fingers to the bone
Not a pretty little penny have I got to show
I ain t looking for much
                                                A chord diagramB7B7
Just a little bit of rest by the side of the road
          A chord diagramE minorEm
I lift my voice to the forces above
             A chord diagramA majorA
the Lords of labor and the Goddess of love
               A chord diagramE minorEm         A chord diagramB7B7
Ain t I been a good, hard working
                      A chord diagramE minor 7Em7
Faithful, servant and son

e|------------------------------------------------|
B|------------------------------------------------|
G|------------------------------------------------|
D|-2----------------------------------------------|
A|-------------------------------------2--0-------|
E|-0--0--0--0--2--2--2--2--3--3--3--3--------3--2-|
   |           |           |           |


BRIDGE:
   A chord diagramE minorEm          G/F#        A chord diagramG MajorG
e|----0-----0-----3-----3-----3-----3-------------|
B|----0-----0-----0-----0-----0-----0--0----------|
G|----0-----0-----0-----0-----0-----0-----2--0----|
D|----------------------------------------------4-|   (x3)
A|-------------------------------------2--0-------|
E|-0-----0-----2-----2-----3-----3-----------3--2-|
   |           |           |           |


BRIDGE
         A chord diagramE minorEm        G/F#
then the sky turns black
       A chord diagramG MajorG
and it cracks with a thundering voice
                 A chord diagramE minorEm                               G/F#
work is what you are when you re breathing in and out
               A chord diagramG MajorG
til your final breath falls to the floor


CHORUS:
   A chord diagramE minorEm                      A chord diagramA majorA
e|----0-----0-----0-----0-----0-----0-----0-----0-|
B|----0-----0-----0-----0-----2-----2-----2-----2-|
G|----0-----0-----0-----0-----2-----2-----2-----2-|
D|------------------------------------------------|
A|-------------------------0-----0-----0-----0----|
E|-0-----0-----0-----3----------------------------|
   |           |           |

   A chord diagramA majorA
e|----0-----0-----0-----0-----0-----0-----0-----0-|
B|----2-----2-----2-----0-----2-----2-----2-----2-|
G|----2-----2-----2-----0-----2-----2-----2-----2-|
D|------------------------------------------------|
A|-0-----0-----0-----0-----0-----0-----0-----0----|
E|------------------------------------------------|
   |           |           |           |

   A chord diagramB7B7
e|-------2--------2-----2--------------------------|
B|-------0--------0-----0--------------------------|
G|-------2--------2-----2--------------------------|
D|-------------------1-----------------------------|
A|-2-----------2-----------2-----0-----------------|
E|-------------------------------------3-----2-----|


A chord diagramE minorEm                  A chord diagramA majorA
so swing down that sledgehammer through the wood

a little test of mind over flesh oughtta do you good
A chord diagramE minorEm
and get up off the ground
             A chord diagramA majorA
you can lay down when the day is done
            A chord diagramB7B7                                      A chord diagramE minor 7Em7
and on the seventh day you can lay in the morning sun


VERSE:
                  A chord diagramE minorEm
I want to make my home on a mountain high
just me and my lover and the big old sky
I ain t asking for much
                                                 A chord diagramB7B7
just a little bit of rest before the day that I die
           A chord diagramE minorEm
I lift my voice to the forces above
             A chord diagramA majorA
the Lords of labor and the Goddess of love
               A chord diagramE minorEm         A chord diagramBB
ain t I been a good, hard working
                      A chord diagramE minor 7Em7
faithful servant and son


BRIDGE:
         A chord diagramE minorEm        G/F#
then the sky turns black
       A chord diagramG MajorG
and it cracks with a thundering voice
                 A chord diagramE minorEm                               G/F#
work is what you are when you re breathing in and out
               A chord diagramG MajorG
til your final breath falls to the floor


CHORUS (x2)
A chord diagramE minorEm                  A chord diagramA majorA
so swing down that sledgehammer through the wood
                            A chord diagramE minorEm
a little test of mind over flesh oughtta do you good

and get up off the ground
             A chord diagramA majorA
you can lay down when the day is done
            A chord diagramB7B7                                      A chord diagramE minorEm
and on the seventh day you can lay in the morning sun

Other versions of Fingers To The Bone

Fingers to the boneChords

Almost there ...

Sign in to get your own page with links to favourite songs and more. You are just one click away...

Login with Facebook Login with Google