Log in

One click and you are in

Login with Facebook Login with Google

Why sign up and log in

Guitar Tabs Explorer
Brouwer Leo tabs for Estudio sencillos no. 5

Guitar tabs

Tempo = 92
Classical guitar

🏷Legend
L = tied note (hold)
A chord diagramE MajorE |-----------0L-0-----------|-----------1L-1-----------|
A chord diagramBB |-----------------0--------|-----------------0--------|
A chord diagramG+G |--------0-----------0-----|--------2-----------2-----|
A chord diagramD MajorD |--------------------------|--------------------------|
A chord diagramA augmentedA |--3-----------------------|--3-----------------------|
A chord diagramE MajorE |--------------------------|--------------------------|


-----------3L-3-----------|-----------0L-0-----------|
-----------------0--------|-----------------0--------|
--------1-----------1-----|--------0-----------0-----|
--------------------------|--------------------------|
--3-----------------------|--3-----------------------|
--------------------------|--------------------------|


--------------------------|
--------------------------|
--------0-----------2--2--|
-----------0L-0-----------|
--3-----------------------|
-----------------1--------|


-----------------------------------------|
--------0--------------------------------|
-----------3L-3-----3--3-----------------|
-----------------0-----------------------|
-----------------------------------------|
--3--------------------------------------|

--------------------------|
--------------------------|
--------0-----------2--2--|
-----------0L-0-----------|
--3-----------------------|
-----------------1--------|


---------------------------|----------------------------|
--------0------------------|----------------------------|
-----------3L-3-----3--3---|--3--------3--3-----3--3----|
-----------------0---------|----------------------------|
---------------------------|----------------------------|
--3------------------------|----------------------------|


-----------3L-3-----------|
-----------------0--------|
--------3-----------3-----|
--1-----------------------|
--------------------------|
--------------------------|


-----------------------------------------|
--------2--------------------------------|
-----------0L-0-----3--3-----------------|
-----------------3-----------------------|
--1--------------------------------------|
--------------------------6--------------|


-----------3L-3----------------|
-----------------0-------------|
--------3-----------3----------|
--1----------------------------|
--------------------------6----|
-------------------------------|


-----------------------------------------|
--------2--------------------------------|
-----------0L-0-----3--3-----------------|
-----------------3-----------------------|
--1--------------------------------------|
--------------------------6--------------|


--------------------------|
--------0-----------2-----|
-----------3L-3--------3--|
--1--------------0--------|
--------------------------|
--------------------------|


----------------------------------------|-------------------|
--------0-----------2-------------------|-----0-----0-------|
-----------3L-3--------3----------------|-----3-----3-------|
--1--------------0----------------------|--------------1----|
--------------------------6>------------|-------------------|
----------------------------------------|-------------------|


--------------------------|-----------0L-0-----------|
--------0--0L-0--0--0-----|-----------------0--------|
--------3--3L-3--3--0-----|--------0-----------0-----|
--3-----------------------|--------------------------|
--------------------------|--3-----------------------|
--------------------------|--------------------------|


-----------1L-1-----------|-----------3L-3-----------|
-----------------0--------|-----------------0--------|
--------2-----------2-----|--------1-----------1-----|
--------------------------|--------------------------|
--3-----------------------|--3-----------------------|
--------------------------|--------------------------|


-----------0L-0-----------|
-----------------0--------|
--------0-----------0-----|
--------------------------|
--3-----------------------|
--------------------------|


-----------------------------|-------------------|
-----------------------------|-----0L-0>---------|
--------0-----------2>-2>----|-----3L-3>---------|
-----------0L-0>-------------|-------------------|
--3--------------------------|-------------------|
-----------------1>----------|--3----------------|


--------------------------|-------------------|
--------------------------|-----0>-0>---------|
--------0-----------2>-2>-|-----3>-3>---------|
-----------0L-0>----------|-------------------|
--3-----------------------|-------------------|
-----------------1>-------|--3----------------|


--------------------------|
--------------------------|
--------0-----------2--2--|
-----------0L-0-----------|
--3-----------------------|
-----------------1--------|


--------------------------||
--------0--0L-0--0--0-----||
--------3--3L-3--3--0-----||
--------------------------||
--------------------------||
--3-----------------------||

Almost there ...

Sign in to get your own page with links to favourite songs and more. You are just one click away...

Login with Facebook Login with Google