Log in

One click and you are in

Login with Facebook Login with Google

Why sign up and log in

Guitar Tabs Explorer
The Brothers Four bass tabs for The green leaves of summer

The Green Leaves Of Summer bass tab by The Brothers Four

The Brothers Four bass tabs for The green leaves of summer

Bass tabs

The_Brothers_Four_The_Green_Leaves_of_Summer.btab

Basstab by Jan Bjorklund, Finland <jani_bjorklund@yahoo.se>
You are welcome to request for basstabs!
Bienvenidos a pedirme transcripciones para el bajo!
Fingering and positions as suggested by TablEdit.

TablEdited by Jan Bjorklund

Tuning : E A D G 	Time Signature: 3/4

 |    |    |    |    |    |
|------------------------|------------------------|
|2-------------------2---|------------------4-1---|
|------------------2-----|2-----------------------|
|------------------------|------------------------|

 |    |    |    |    |    |
|------------------------|--------------------2---|
|2-----------------------|0-----------------------|
|--------------------2---|------------------------|
|------------------------|------------------------|

 |    |    |    |    |    |
|0-----------------------|------------------------|
|--------------------0---|------------------------|
|------------------------|0-----------------------|
|------------------------|------------------------|

 |    |    |    |    |    |
|------------------------|------------------------|
|4-------------------4---|----------------4-------|
|------------------4-----|2-----------------------|
|------------------------|------------------------|

 |    |    |    |    |    |
|------------------------|------------------------|
|2-----------------------|------------------------|
|------------------------|0-----------0---3-------|
|------------------------|------------------------|

 |    |    |    |    |    |
|------------------------|0-----------------------|
|0-----------0---4-------|----------------0-------|
|------------------------|------------------------|
|------------------------|------------------------|

 |    |    |    |    |    |
|------------------------|------------------------|
|2-------------------2---|------------------------|
|------------------2-----|0-----------------------|
|------------------------|------------------------|

 |    |    |    |    |    |
|------------------------|------------------------|
|------------------------|--------------------4---|
|3-----------------------|2-----------------------|
|--------------------3---|------------------------|

 |    |    |    |    |    |
|------------------------|------------------------|
|2-----------------------|------------------4-----|
|------------------------|2-------------------2---|
|------------------------|------------------------|

 |    |    |    |    |    |
|------------------------|----------------2-------|
|2-----------------------|0-----------------------|
|--------------------2---|------------------------|
|------------------------|------------------------|

 |    |    |    |    |    |
|0-----------------------|------------------------|
|--------------------0---|--------------------2---|
|------------------------|0-----------------------|
|------------------------|------------------------|

 |    |    |    |    |    |
|------------------------|------------------------|
|4-----------------------|----------------1-------|
|--------------------4---|2-----------2-----------|
|------------------------|------------------------|

 |    |    |    |    |    |
|------------------------|------------------------|
|2-----------------------|------------------2-----|
|--------------------2---|0-------------------0---|
|------------------------|------------------------|

 |    |    |    |    |    |
|--------------------2---|0-----------------------|
|0-----------------------|------------------------|
|------------------------|------------------------|
|------------------------|------------------------|

 |    |    |    |    |    |
|------------------------|------------------------|
|2-----------------------|--------------------2---|
|------------------------|0-----------------------|
|------------------------|------------------------|

 |    |    |    |    |    |
|------------------------|------------------------|
|2-----------------------|2-----------------------|
|--------0-------2-------|------------------------|
|------------------------|------------------------|

 |    |    |    |    |    |
|4---------------------4-|------------------------|
|------------------------|------------------------|
|------------------------|0-------2-------2-------|
|------------------------|------------------------|

 |    |    |    |    |    |
|------------------------|------------------------|
|2-----------------------|------------------------|
|--------------------2---|0-------2-------2-------|
|------------------------|------------------------|

 |    |    |    |    |    |
|------------------------|------------------------|
|2-----------------------|------------------------|
|--------------------2---|2-----------------------|
|------------------------|------------------------|

 |    |    |    |    |    |
|------------------------|------------------2-----|
|2-----------------------|0-------------------0---|
|------------------------|------------------------|
|------------------------|------------------------|

 |    |    |    |    |    |
|0-----------------------|--------------------0---|
|------------------0-----|------------------2-----|
|------------------------|0-----------------------|
|--------------------3---|------------------------|

 |    |    |    |    |    |
|------------------------|------------------------|
|4-----------------------|------------------------|
|--------------------4---|2-----------------------|
|------------------------|------------------------|

 |    |    |    |    |    |
|------------------------|------------------------|
|2-----------------------|------------------------|
|------------------------|0-----------0---3-------|
|------------------------|------------------------|

 |    |    |    |    |    |
|------------------------|0-----------------------|
|0-----------0---4-------|--------------------0---|
|------------------------|------------------------|
|------------------------|------------------------|

 |    |    |    |    |    |
|------------------------|------------------------|
|2-----------------------|------------------2-----|
|------------------------|0-------------------0---|
|------------------------|------------------------|

 |    |    |    |    |    |
|------------------------|------------------------|
|------------------------|------------------------|
|3-----------------------|2-----------------------|
|------------------------|------------------------|

 |    |    |    |    |    |
|------------------------|------------------------|
|2-----------------------|--------------------4---|
|--------------------2---|2-----------------------|
|------------------------|------------------------|

 |    |    |    |    |    |
|------------------------|------------------2-----|
|2-----------------------|0-------------------0---|
|----------------2-------|------------------------|
|------------------------|------------------------|

 |    |    |    |    |    |
|0-----------------------|------------------------|
|------------------------|------------------------|
|------------------------|0-----------------------|
|------------------------|------------------------|

 |    |    |    |    |    |
|------------------------|------------------------|
|4-------------------4---|--------------------4---|
|------------------4-----|2-----------------------|
|------------------------|------------------------|

 |    |    |    |    |    |
|------------------------|------------------------|
|2-----------------------|------------------------|
|------------------------|0-----------------------|
|------------------------|------------------------|

 |    |    |    |    |    |
|------------------------|0-------------------0---|
|0-----------------------|------------------0-----|
|------------------------|------------------------|
|------------------------|------------------------|

 |    |    |    |    |    |
|------------------------|------------------------|
|2-----------------------|--------------------2---|
|------------------2-----|0-----------------------|
|--------------------3---|------------------------|

 |    |    |    |    |    |
|------------------------|------------------------|
|2-----------------------|2-----------------------|
|--------0-------2-------|------------------------|
|------------------------|------------------------|

 |    |    |    |    |    |
|------------------------|------------------------|
|2-----------------------|------------------2-----|
|--------------------2---|0-------------------0---|
|------------------------|------------------------|

 |    |    |    |    |    |
|------------------2-----|0-----------------------|
|0-------------------4---|--------------------0---|
|------------------------|------------------------|
|------------------------|------------------------|

 |    |    |    |    |    |
|0-----------------------|------------------------|
|--------2-------2-------|------------------2-----|
|------------------------|0-------------------0---|
|------------------------|------------------------|

 |    |    |    |    |    |
|------------------------|------------------------|
|2-----------------------|2-----------------------|
|--------0-------2-------|--------------------2---|
|------------------------|------------------------|

 |    |    |    |    |    |
|------------------------|------------------------|
|2-----------------------|------------------------|
|------------------------|0-------2-------2-------|
|------------------------|------------------------|

 |    |    |    |    |    |
|------------------------|------------------------|
|2-----------------------|------------------------|
|------------------------|0-------2-------2-------|
|------------------------|------------------------|

 |    |    |    |    |    |
|------------------------|------------------------|
|2-----------------------|2-----------------------|
|----------------2-------|------------------------|
|------------------------|------------------------|



............................................................

Almost there ...

Sign in to get your own page with links to favourite songs and more. You are just one click away...

Login with Facebook Login with Google