Log in

One click and you are in

Login with Facebook Login with Google

Why sign up and log in

Guitar Tabs Explorer
Joe Brooks guitar tabs for For you

Guitar tabs with lyrics

Tuning: GADGBE

Difficulty: Intermediate

Submitted by haakan


Intro + Verse
                                                                                   ___
E|------10-----7------5------7------7--------10-----7------5------7------7s3--|      |
B|----------------------------------------------------------------------------|      |
G|----------------------------------------------------------------------------|      |
D|----0------0------0------0------0---0----0------0------0------0------0------|      |
A|----------------------------------------------------------------------------|      |
G|--0------0------0------0------0--------0------0------0------0------0--------|      |
                                                                                    x 3
E|------3------3------3------3------3-----------------------------------------|      |
B|------3------3------3------3------3--------3------3------3------3------3----|      |
G|----0------0------0------0------0---0------0------0------0------0------0----|      |
D|--2------2------2------2------2----------0------0------0------0------0---0--|      |
A|---------------------------------------3------3------3------3------3--------|      |
G|----------------------------------------------------------------------------|      |
                                                                                   ¯¯¯
'I've been wondering just, how many more days...til I see your face '
'I don't quite know just, how to fill this space...where you used to lie'


Pre-chorus

E|----------------------------------------------------------------------------|
B|------1------0------1------0h1----0--------0------0------0------0------0----|
G|------2------2------2------2------2--------0------0------0------0------0----|
D|----2------2------2------2------2---2----2------2------2------2------2---2--|
A|----------------------------------------------------------------------------|
G|--2------2------2------2------2--------4------4------4------4------4--------|

E|------0------0------0------0------0--------0------0------0------------|
B|------3------3------3------3------3--------7------7------7------------|
G|----0------0------0------0------0---0-----------------------let-ring--|
D|-----------------------------------------7------7------7--------------|
A|--5------5------5------5------5--------5------5------5----------------|
G|----------------------------------------------------------------------|

'And I'm aching, and I'm breaking, inside...'


Chorus

E|----------------------------0------0------0------0------0----|
B|-----8----------7-----------3------3------3------3------3----|
G|----9----------7---------------------------------------------|
D|---9----------7-----------5------5------5------5------5---5--|
A|--7----------5----------3------3------3------3------3--------|
G|-------------------------------------------------------------|
                                                                                   ___
E|------0------0-----------0------0-----------0------0------0------0------0---|      |
B|------8------8-----------7------7-----------3------3------3------3------3---|      |
G|----------------------------------------------------------------------------|     x 2
D|----9------9------9----7------7------7----5------5------5------5------5---5-|      |
A|--7------7------7----5------5------5----3------3------3------3------3-------|      |
G|----------------------------------------------------------------------------|      |
                                                                                   ¯¯¯
E|----------------------------------------|
B|------3------3-----------1------1-------|
G|----0------0------0----0------0------0--|
D|----------------------------------------|
A|----------------------------------------|
G|--4------4------4----2------2------2----|

'And it's all because of you, and it's all because of you'
'I fall because of you, and I'm all because of you'


Post-chorus + Verse (same as Intro + Verse)

'I don't quite know just, how long I can wait...to see you smile again'
'I've been wondering just, how long I can stay awake...before my eyes start to bleed'


Pre-chorus

E|----------------------------------------------------------------------------|
B|------1------0------1------0h1----0--------0------0------0------0------0----|
G|------2------2------2------2------2--------0------0------0------0------0----|
D|----2------2------2------2------2---2----2------2------2------2------2---2--|
A|----------------------------------------------------------------------------|
G|--2------2------2------2------2--------4------4------4------4------4--------|

E|------0------0------0------0------0--------0------0------0------0------0----|
B|------3------3------3------3------3--------7------7------7------7------7----|
G|----0------0------0------0------0---0---------------------------------------|
D|-----------------------------------------7------7------7------7------7---7--|
A|--5------5------5------5------5--------5------5------5------5------5--------|
G|----------------------------------------------------------------------------|

'Now I'm aching, and I'm breaking, inside...'


Chorus
                                                                                   ___
E|------0------0-----------0------0-----------0------0------0------0------0---|      |
B|------8------8-----------7------7-----------3------3------3------3------3---|      |
G|----------------------------------------------------------------------------|     x 3
D|----9------9------9----7------7------7----5------5------5------5------5---5-|      |
A|--7------7------7----5------5------5----3------3------3------3------3-------|      |
G|----------------------------------------------------------------------------|      |
                                                                                   ¯¯¯
E|----------------------------------------|
B|------3------3-----------1------1-------|
G|----0------0------0----0------0------0--|
D|----------------------------------------|
A|----------------------------------------|
G|--4------4------4----2------2------2----|

'And it's all because of you, and it's all because of you'
'And I fall because of you, and I'm all because of you'


Outro (same as Intro + Verse, but played only once)


Finish on:

E|--------10--|
B|-----12-----|
G|------------|
D|------------|
A|------------|
G|--0---------|

Other versions of For You

For youChords

Almost there ...

Sign in to get your own page with links to favourite songs and more. You are just one click away...

Login with Facebook Login with Google