Log in

One click and you are in

Login with Facebook Login with Google

Why sign up and log in

Guitar Tabs Explorer
The Brobecks chords for Love at first sight intro ukulele

Love At First Sight Intro Ukulele chords by The Brobecks

The Brobecks chords for Love at first sight intro ukulele

Guitar chords

-------------------------------------------------------------------------------
               Love At First Sight - The Brobecks
-------------------------------------------------------------------------------
Tabbed by: Tess
E-mail: thenorthwestcowgirl@gmail.com
This is my first tab and I just messed around until it sounded similar. I have no idea
if it's accurate.

Tuning: Standard

A|--3-3-3-3--5---7--2-2-2-2-2-0-------3-----------|
E|--------------------------------3---------------|
C|------------------------------------------------|
G|------------------------------------------------|

A|--3-3-3-3--5---7--2-2-2-2-2-0-------3-----------|
E|--------------------------------3---------------|
C|------------------------------------------------|
G|------------------------------------------------|

The chords for the rest can be found here:

Almost there ...

Sign in to get your own page with links to favourite songs and more. You are just one click away...

Login with Facebook Login with Google