Log in

One click and you are in

Login with Facebook Login with Google

Why sign up and log in

Guitar Tabs Explorer
The Brobecks bass tabs for Bike ride

Bass tabs

Intro:

G|---------------------------------------------------------------------------|
D|---------------------------------------------------------------------------|
A|-7-7-7-7-7-6-7-6-7--------/7-7-7-7-7-6-7-6-7--7-7-7-7-7-7-7-7--------------|
E|---------------------------------------------------------------------------|

G|---------------------------------------------------------------------------|
D|------------------------------6--------------------------------------------|
A|-7-7-7-7-7-7-7-7--6-7-7-9-7-7---7--0-0-0-0-0-0-0-0-------------------------|
E|---------------------------------------------------------------------------|

G|---------------------------------------------------------------------------|
D|---------------------------------------------------------------------------|
A|-11-0-0-9-0-0-11-0-9-0-0-7-0-4--0-0-12--0-0-12--0-0-12---------------------|
E|---------------------------------------------------------------------------|

Verse 1:

G|---------------------------------------------------------------------------|
D|---------------------------------------------------------------------------|
A|-/7-7-7-7-7-6-7-6-7--/7-7-7-7-7-6-7-6-7--7-7-7-7-7-7-7-7-------------------|
E|---------------------------------------------------------------------------|

G|---------------------------------------------------------------------------|
D|-----7-----7-----7-----7-----7-----7---------------------------------------|
A|-0-0---0-0---0-0---0-0---0-0---0-0---0-0-----------------------------------|
E|---------------------------------------------------------------------------|

G|---------------------------------------------------------------------------|
D|---------------------------------------------------------------------------|
A|-/7-7-7-7-7-6-7-6-7--/7-7-7-7-7-6-7-6-7--7-7-7-7-7-7-7-7-------------------|
E|---------------------------------------------------------------------------|

G|---------------------------------------------------------------------------|
D|-----7-----7-----7-----7-----7-----7-----7-----7---------------------------|
A|-0-0---0-0---0-0---0-0---0-0---0-0---0-0---0-0-----------------------------|
E|---------------------------------------------------------------------------|


Chorus:

G|---------------------------------------------------------------------------|   2x
D|---------------------------------------------------------------------------|
A|-0--0-0-0-0-0-0--2--2-2-2-2-2-2--4--4-4-4-4-4-4--7--7-6-7-6-7-6------------|
E|---------------------------------------------------------------------------|

G|---------------------------------------------------------------------------|
D|---------------------------------------------------------------------------|
A|-0--0-0-0-0-0-0--2--2-2-2-2-2-2--7--7-7-6--6-6-4--4-4-2--2-2---------------|
E|---------------------------------------------------------------------------|

G|---------------------------------------------------------------------------|
D|---------------------------------------------------------------------------|
A|-0--0-0-0-0-0-0--2--2-2-2-2-2-2--7-6-7-6-7-6-7-6-7-------------------------|
E|---------------------------------------------------------------------------|

G|---------------------------------------------------------------------------|
D|-------------------------------------------------------------------6-------|
A|-/7-7-7-7-7-6-7-6-7--7-7-7-7-7-7-7-7--7-7-7-7-7-7-7-7--6-7-7-9-7-7---7-----|
E|---------------------------------------------------------------------------|

G|---------------------------------------------------------------------------|
D|---------------------------------------------------------------------------|
A|-0-0-0-0-0-0-0-0--11-0-0-9-0-0-11-0-9-0-0-7-0-4---0-0-12--0-0-12--0-0-12---|
E|---------------------------------------------------------------------------|


Verse 2:

G|---------------------------------------------------------------------------|
D|---------------------------------------------------------------------------|
A|-/7-7-7-7-7-6-7-6-7--/7-7-7-7-7-6-7-6-7--7-7-7-7-7-7-7-7-------------------|
E|---------------------------------------------------------------------------|

G|---------------------------------------------------------------------------|
D|-----7-----7-----7-----7-----7-----7---------------------------------------|
A|-0-0---0-0---0-0---0-0---0-0---0-0---0-0-----------------------------------|
E|---------------------------------------------------------------------------|

G|---------------------------------------------------------------------------|
D|---------------------------------------------------------------------------|
A|-/7-7-7-7-7-6-7-6-7--/7-7-7-7-7-6-7-6-7--7-7-7-7-7-7-7-7-------------------|
E|---------------------------------------------------------------------------|

G|---------------------------------------------------------------------------|
D|-----7-----7-----7-----7-----7-----7-----7-----7---------------------------|
A|-0-0---0-0---0-0---0-0---0-0---0-0---0-0---0-0-----------------------------|
E|---------------------------------------------------------------------------|


Chorus:

G|---------------------------------------------------------------------------|  2x
D|---------------------------------------------------------------------------|
A|-0--0-0-0-0-0-0--2--2-2-2-2-2-2--4--4-4-4-4-4-4--7--7-6-7-6-7-6------------|
E|---------------------------------------------------------------------------|

G|---------------------------------------------------------------------------|
D|---------------------------------------------------------------------------|
A|-0--0-0-0-0-0-0--2--2-2-2-2-2-2--7--7-7-6--6-6-4--4-4-2--2-2---------------|
E|---------------------------------------------------------------------------|

G|---------------------------------------------------------------------------|
D|---------------------------------------------------------------------------|
A|-0--0-0-0-0-0-0--2--2-2-2-2-2-2--7-6-7-6-7-6-7-6-7-------------------------|
E|---------------------------------------------------------------------------|


Bridge:

G|---------------------------------------------------------------------------|  2x
D|---------------------------------------------------------------------------|
A|--------------------------------------7--7-7-7-6-7-6---7--6--5--4--3--2----|
E|-12\-2--2-2-2-0-2-0---5--5-5-5-4-5-4---------------------------------------|

G|---------------------------------------------------------------------------|
D|---------------------------------------------------------------------------|
A|----------------------------------7-7-7-7-7--6-7-8-9~----------------------|
E|-2--2-2-2-0-2-0---5--5-5-5-4-5-4-------------------------------------------|

G|--------------------------------------8-9-9--8-9-9--8-9-9--8-9-9--8-9-8-9--|
D|-7-7--6-6----------9-9--7-7--6-6-------------------------------------------|
A|----------9-9--7-7---------------9-9---------------------------------------|
E|---------------------------------------------------------------------------|


Chorus:

G|---------------------------------------------------------------------------|   2x
D|---------------------------------------------------------------------------|
A|-0--0-0-0-0-0-0--2--2-2-2-2-2-2--4--4-4-4-4-4-4--7--7-6-7-6-7-6------------|
E|---------------------------------------------------------------------------|

G|---------------------------------------------------------------------------|
D|---------------------------------------------------------------------------|
A|-0--0-0-0-0-0-0--2--2-2-2-2-2-2--7--6-7-6-4--4-2-2-------------------------|
E|---------------------------------------------------------------------------|

G|---------------------------------------------------------------------------|
D|---------------------------------------------------------------------------|
A|-0--0-0-0-0-0-0--2--2-2-2-2-2-2--7-6-7-6-7-6-7-6-7-------------------------|
E|---------------------------------------------------------------------------|

Almost there ...

Sign in to get your own page with links to favourite songs and more. You are just one click away...

Login with Facebook Login with Google