Log in

One click and you are in

Login with Facebook Login with Google

Why sign up and log in

Guitar Tabs Explorer
Fox Britny bass tabs for Hair of the dog

Bass tabs

Intro:

Gb|------------------------------------------------------------------|
Db|-------------------------5-------------------------------5--------|
Ab|-----------------7---------7-5-7-----------------7---------7-5-7--|
Eb|-0-------0-3-4-7-----------------0-------0-3-4-7------------------|

Gb|------------------------------------------------------------------|
Db|-------------------------5-------------------------------5--------|
Ab|-----------------7---------7-5-7-----------------7---------7-5-7--|
Eb|-0-------0-3-4-7-----------------0-------0-3-4-7------------------|


Verse:

Gb|------------------------------------------------------------------|
Db|-------------------------5-------------------------------5--------|
Ab|-----------------7---------7-5-7-----------------7---------7-5-7--|
Eb|-0-------0-3-4-7-----------------0-------0-3-4-7------------------|

Gb|------------------------------------------------------------------|
Db|-------------------------5-------------------------------5--------|
Ab|-----------------7---------7-5-7-----------------7---------7-5-7--|
Eb|-0-------0-3-4-7-----------------0-------0-3-4-7------------------|

Gb|-------------------------5-------------------------------5--------|
Db|-----------------7---------7-5-7-----------------7---------7-5----|
Ab|-0-------0-3-4-7-----------------0-------0-3-4-7---------------7--|
Eb|------------------------------------------------------------------|

Gb|------------------------------------------------------------------|
Db|-------------------------5-------------------------------5--------|
Ab|-----------------7---------7-5-7-----------------7---------7-5----|
Eb|-0-------0-3-4-7-----------------0-------0-3-4-7------------------|

Chorus:

Gb|------------------------------------------------------------------|
Db|------------------------------------------------------------------|
Ab|---------------------------------------------------------5-5-7-7\-|
Eb|-0-----------3---5---------------0--------------------------------|

Gb|------------------------------------------------------------------|
Db|------------------------------------------------------------------|
Ab|---------------------------------------------------------5-5-7-7\-|
Eb|-0-----------3---5---------------0--------------------------------|

Gb|------------------------------------------------------------------|
Db|-------------------------5-------------------------------5--------|
Ab|-----------------7---------7-5-7-----------------7---------7-5-7--|
Eb|-0-------0-3-4-7-----------------0-------0-3-4-7------------------|


Verse:

Gb|------------------------------------------------------------------|
Db|-------------------------5-------------------------------5--------|
Ab|-----------------7---------7-5-7-----------------7---------7-5-7--|
Eb|-0-------0-3-4-7-----------------0-------0-3-4-7------------------|

Gb|------------------------------------------------------------------|
Db|-------------------------5-------------------------------5--------|
Ab|-----------------7---------7-5-7-----------------7---------7-5-7--|
Eb|-0-------0-3-4-7-----------------0-------0-3-4-7------------------|

Gb|-------------------------5-------------------------------5--------|
Db|-----------------7---------7-5-7-----------------7---------7-5----|
Ab|-0-------0-3-4-7-----------------0-------0-3-4-7---------------7--|
Eb|------------------------------------------------------------------|

Gb|------------------------------------------------------------------|
Db|-------------------------5-------------------------------5--------|
Ab|-----------------7---------7-5-7-----------------7---------7-5----|
Eb|-0-------0-3-4-7-----------------0-------0-3-4-7------------------|


Chorus:

Gb|------------------------------------------------------------------|
Db|------------------------------------------------------------------|
Ab|---------------------------------------------------------5-5-7-7\-|
Eb|-0-----------3---5---------------0--------------------------------|

Gb|------------------------------------------------------------------|
Db|------------------------------------------------------------------|
Ab|---------------------------------------------------------5-5-7-7\-|
Eb|-0-----------3---5---------------0--------------------------------|

Gb|------------------------------------------------------------------|
Db|-------------------------5-------------------------------5--------|
Ab|-----------------7---------7-5-7-----------------7---------7-5-7--|
Eb|-0-------0-3-4-7-----------------0-------0-3-4-7------------------|

Guitar Solo:

Gb|------------------------------------------------------------------|
Db|------------------------------------------------------------------|
Ab|-7---7---7---7---7-----------5-6-7---7---7---7---7-5--------------|
Eb|-------------------3-3-5-5-7-------------------------7-5-3-5-7----|

Gb|------------------------------------------------------------------|
Db|------------------------------------------------------------------|
Ab|-7---7---7---7---7-----------5-6-7---7---7---7---7---5---3---2----|
Eb|-------------------3-3-5-5-7--------------------------------------|

Gb|------------------------------------------------------------------|
Db|------------------------------------------------------------------|
Ab|-7---7---7---7---7-----------5-6-7---7---7---7---7-5--------------|
Eb|-------------------3-3-5-5-7-------------------------7-5-3-5-7----|

Gb|------------------------------------------------------------------|
Db|------------------------------------------------------------------|
Ab|-7---7---7---7---7-----------5-6-7---7---7---7---7---5---3---2----|
Eb|-------------------3-3-5-5-7--------------------------------------|


Outro:

Gb|------------------------------------------------------------------|
Db|-------------------------5-------------------------------5--------|
Ab|-----------------7---------7-5-7-----------------7---------7-5----|
Eb|-0-------0-3-4-7-----------------0-------0-3-4-7------------------|

Gb|------------------------------------------------------------------|
Db|------------------------------------------------------------------|
Ab|-7-7-7-7-7-7-7-7-7-7-7-7-7-7-7-7-7-7-7-7-7-7-7-7-7-7-7-7-7-7-7-7--| x5
Eb|------------------------------------------------------------------|

Gb|------------------------------------------------------------------|
Db|------------------------------------------------------------------|
Ab|-7-7-7-7-7-7-7-7-7-7-7-7-7-7-7-7-7-7-7-7-7-7-7-7-7-5--------------|
Eb|-----------------------------------------------------7-5-3-5-7----|

Gb|------------------------------------------------------------------|
Db|------------------------------------------------------------------|
Ab|-7-7-7-7-7-7-7-7-7-7-7-7-7-7-7-7-7-7-7-7-7-7-7-7-7-7-7-7-7-7-7-7--| Repeat to fade
Eb|------------------------------------------------------------------|


☠☠☠☠☠☠☠☠☠☠☠☠☠☠☠☠☠☠☠☠☠☠☠☠☠☠☠☠☠☠☠☠☠☠☠☠

| \ Slide down

☠☠☠☠☠☠☠☠☠☠☠☠☠☠☠☠☠☠☠☠☠☠☠☠☠☠☠☠☠☠☠☠☠☠☠☠

Almost there ...

Sign in to get your own page with links to favourite songs and more. You are just one click away...

Login with Facebook Login with Google