Log in

One click and you are in

Login with Facebook Login with Google

Why sign up and log in

Guitar Tabs Explorer
Bring Me The Horizon guitar tabs for Traitors never play hangmanacoustic

Traitors Never Play Hangmanacoustic tab by Bring Me The Horizon

Bring Me The Horizon guitar tabs for Traitors never play hangmanacoustic

Guitar tabs

Intro
A chord diagramE MajorE|----------|
A chord diagramBB|----------|
A chord diagramG+G|----------|
A chord diagramD MajorD|----------|
A chord diagramA augmentedA|--5-5-5-5-|
A chord diagramE MajorE|----------|
Pm  . . . .

Repeat until 00:55
|----------------------------------|
|----------------7-----7-----------|
|------7-------7-----7-------7-----|
|----7---7---5-----0-------7---7---|
|--5-------5-------------5-------5-|
|----------------------------------|

 00:55
|------------|-----------|-------------------|
|------------|-----------|-------------------|
|------7-7/--|------9-9/----|------11-11-7-7-|
|----7-7-7---|----9-9-9----|-------11----0-0-|
|--5---5-5---|--7---7-7----|-------9-----0-0-|
|------------|-----------|-------------------|

That's all for now. :)

Almost there ...

Sign in to get your own page with links to favourite songs and more. You are just one click away...

Login with Facebook Login with Google