Log in

One click and you are in

Login with Facebook Login with Google

Why sign up and log in

Guitar Tabs Explorer
Bring Me The Horizon bass tabs for Mother tongue

Mother Tongue bass tab by Bring Me The Horizon

Bring Me The Horizon bass tabs for Mother tongue

Bass tabs

Tuning: B Tuning (B E A D)

🤘 Verse 1:

D|---------------------------|
A|---------------------------|
E|---------------------------|
B|---3---5---7---3---5---7---| x4
🤘 Chorus:

D|-----------------------------------|
A|-----------------------------------|
E|-----------------------------------|
B|-2--2---3--3--3/---5--5---7--7--7--| x4


Instrumental Break:

D|-------------------------|
A|-------------------------|
E|-------------------------|
B|-3/--5/--7/--3/--5/--7/--|


🤘 Verse 2:

D|-------------------------------------------------------------------|
A|--------5-5-5-4---------------------------5-5-4--------------------|
E|----------------5-------------------------------5------------------|
B|-3-3-3-3----------5-5-5-5-7-7-7-7--3-3-3-3--------5-5-5-5-7-7-7-7--| x2


🤘 Chorus:

D|-----------------------------------|
A|-----------------------------------|
E|-----------------------------------|
B|-2--2---3--3--3/---5--5---7--7--7--| x8

🤘 Bridge:

D|-------------------------|
A|-------------------------|
E|-------------------------|
B|-3/--5/--7/--3/--5/--7/--|

D|-------------------------------------------|
A|-------------------------------------------|
E|-2-2-3-3-3-5-5-7-7-7--2-2-3-3-3—5-5-7-7-7--|
B|-------------------------------------------|


🤘 Chorus:

D|-----------------------------------|
A|-----------------------------------|
E|-----------------------------------|
B|-2--2---3--3--3/---5--5---7--7--7--| x8


************************************

| /  Slide up

************************************

Almost there ...

Sign in to get your own page with links to favourite songs and more. You are just one click away...

Login with Facebook Login with Google