Guitar Tabs Explorer
Bring Me The Horizon guitar tabs for Medicine

Medicine tab


Be the first to rate

Medicine tab by Bring Me The Horizon

Guitar tabs

Print
Tuning: Drop D chord diagramDD (D chord diagramDD A chord diagramAA D chord diagramDD G chord diagramGG B chord diagramBB E chord diagramEE)

Key: F chord diagramFF

Difficulty: Novice

Intro: (Electronic Hook)

E|------------------------------------------------------------------|
B|------------------------------------------------------------------|
G|--12h14-14-14--10h12-12-12----10h12-12-12--10h12-12-12--7----5----|
D|--x--x--x--x----x--x-x--x------x-x--x--x----x----x--x---x----x----| x2
A|--10h12-12-12---8h10-10-10-----8h10-10-10---8h10-10-10--5----3----|
D|------------------------------------------------------------------|


Verse:

Pretty much all synth then this comes in (Couldn't see the thunder for the storm).

E|------8---------------|
B|--10-----8--10-10-----|
G|-------------------7--|
D|----------------------|
A|----------------------|
D|----------------------|

E|------------------------------------------------------------------|
B|------------------------------------------------------------------|
G|--12h14-14-14--10h12-12-12----10h12-12-12--10h12-12-12--7----5----|
D|--x--x--x--x----x--x-x--x------x-x--x--x----x----x--x---x----x----| x4
A|--10h12-12-12---8h10-10-10-----8h10-10-10---8h10-10-10--5----3----|
D|------------------------------------------------------------------|


Bridge:

E|--------------------------------------------------------------|
B|--8-8----6--8-8----6--8-8----6--8-8----6--8-8----6--8-8----6--|
G|-------7---------7---------7---------7---------7---------7----|
D|--------------------------------------------------------------|
A|--------------------------------------------------------------|
D|--------------------------------------------------------------|


Chorus:

E|-------------------------|
B|-------------------------|
G|-------------------------|
D|--8----7----0---10--7----| x2
A|--8----7----0---10--7----|
D|--8----7----0---10--7----|

E|----------------------------------------------|
B|----------------------------------------------|
G|----------------------------------------------|
D|--8---8---7--7-7--7---0---0---10--10-10--7----|
A|--8---8---7--7-7--7---0---0---10--10-10--7----|
D|--8---8---7--7-7--7---0---0---10--10-10--7----|

E|-------------------------|
B|-------------------------|
G|-------------------------|
D|--8----7----0---10--7----|
A|--8----7----0---10--7----|
D|--8----7----0---10--7----|


Verse 2:

Guitar 1

E|------------------------------------------------------------------|
B|------------------------------------------------------------------|
G|--12h14-14-14--10h12-12-12----10h12-12-12--10h12-12-12--7----5----|
D|--x--x--x--x----x--x-x--x------x-x--x--x----x----x--x---x----x----| x5
A|--10h12-12-12---8h10-10-10-----8h10-10-10---8h10-10-10--5----3----|
D|------------------------------------------------------------------|

Guitar 2, comes in on 5th round of Guitar 1's part (Couldn't see the thunder for the storm).

E|------8---------------|
B|--10-----8--10-10-----|
G|-------------------7--|
D|----------------------|
A|----------------------|
D|----------------------|


Bridge:

E|------------------------------------------    ------------------------|
B|--8-8----6--8-8----6--8-8----6--8-8----6--    --8-8----6--8-8----6----|
G|-------7---------7---------7---------7----    ------7----------7------|
D|------------------------------------------ x3 ------------------------|
A|------------------------------------------    ------------------------|
D|------------------------------------------    ------------------------|


Chorus:

E|-------------------------|
B|-------------------------|
G|-------------------------|
D|--8----7----0---10--7----| x2
A|--8----7----0---10--7----|
D|--8----7----0---10--7----|

E|----------------------------------------------|
B|----------------------------------------------|
G|----------------------------------------------|
D|--8---8---7--7-7--7---0---0---10--10-10--7----|
A|--8---8---7--7-7--7---0---0---10--10-10--7----|
D|--8---8---7--7-7--7---0---0---10--10-10--7----|

E|-------------------------|
B|-------------------------|
G|-------------------------|
D|--8----7----0---10--7----|
A|--8----7----0---10--7----|
D|--8----7----0---10--7----|

(Chorus Continued)

E|-------------------------|
B|-------------------------|
G|-------------------------|
D|--8----7----0---10--7----| x4
A|--8----7----0---10--7----|
D|--8----7----0---10--7----|


Break:

Guitar 1

E|---------------------------------------------------------8-8-8------------|
B|--8-10----8-10----8-10----8----8-10----8-10----8-10--6h8-------10p8h10----|
G|-------10------10------10-----------10------10----------------------------|
D|--------------------------------------------------------------------------|
A|--------------------------------------------------------------------------|
D|--------------------------------------------------------------------------|

    *(Guitar 2 part starts here)
E|--------------------------------------------------|
B|--8-10----8-10----8-10----8----8-10----8-10-------|
G|-------10------10------10-----------10------10----|
D|--------------------------------------------------|
A|--------------------------------------------------|
D|--------------------------------------------------|

*Guitar 2

E|-----------------|
B|--3----6----5----|
G|--x----x----x----|
D|--x----x----x----|
A|--1----5----3----|
D|-----------------|


Chorus:

E|-------------------------|
B|-------------------------|
G|-------------------------|
D|--8----7----0---10--7----| x2
A|--8----7----0---10--7----|
D|--8----7----0---10--7----|

E|----------------------------------------------|
B|----------------------------------------------|
G|----------------------------------------------|
D|--8---8---7--7-7--7---0---0---10--10-10--7----|
A|--8---8---7--7-7--7---0---0---10--10-10--7----|
D|--8---8---7--7-7--7---0---0---10--10-10--7----|

E|-------------------------|
B|-------------------------|
G|-------------------------|
D|--8----7----0---10--7----|
A|--8----7----0---10--7----|
D|--8----7----0---10--7----|

(Chorus Continued)

E|-------------------------|
B|-------------------------|
G|-------------------------|
D|--8----7----0---10--7----| x4
A|--8----7----0---10--7----|
D|--8----7----0---10--7----|


End:

(Heard faintly)

E|------------------------------------------------------------------|
B|------------------------------------------------------------------|
G|--12h14-14-14--10h12-12-12----10h12-12-12--10h12-12-12--7----5----|
D|--x--x--x--x----x--x-x--x------x-x--x--x----x----x--x---x----x----| x2
A|--10h12-12-12---8h10-10-10-----8h10-10-10---8h10-10-10--5----3----|
D|------------------------------------------------------------------|


Legend

p - pull off
h - hammer on
x - muted note

Other versions of Medicine

- MedicineChords

Comment this song and these guitar tabs

Do you have corrections, comments on the guitar tabs, thoughts about the song or a message to the author? Write them below.