Log in

One click and you are in

Login with Facebook Login with Google

Why sign up and log in

Guitar Tabs Explorer
Brighten tabs for Where we belong

Guitar tabs with lyrics

this so I thought I'd tab it out for you guys. Everything was tabbed by ear so I don't
that it's perfect, but it is very close to the song. The tablature is a little
so it might be hard to understand at first, but you'll catch on. Enjoy!
Intro/Verse (x3)

"I swear the moon don't hang.."


E------------------x--------------|
B--12-12---10--8-8-x-8-8--7--5-5--|
G------------------x--------------|
D------------------x--------------|
A--10-10---9---7-7-x-7-7--5--3-3--|
E------------------x--------------|


E-------------10-------x----------------|
B--12-12----10----8-8--x--8-8---5--7-7--|
G----------------------x----------------|
D----------------------x----------------|
A--10-10---9------7-7--x--7-7---3--5-5--|
E----------------------x----------------|


Pre-Chorus (x1)

"We don't know just what to do with it.."

                                   d d d d u d
E---5----5-----3----3-----5----5---x---------x~--|
B-7----7-----5----5-----7----7-----5---------5~--|
G----------------------------------0---------0~--|
D----------------------------------0---------0~--|
A-5----5-----3----3-----5----5-----3---------3~--|
E----------------------------------x---------x~--|


Chorus (x3)

"I like it when she sings to me.."

                 v
   d d d u u d d d d d u u d d
E--3---------3-3-3---------3-3--|
B--3---------3-3-3---------3-3--|
G--0---------0-0-2---------0-0--|
D--0---------0-0-0---------0-0--|
A--0---------3-3-0---------3-3--|
E--3---------x-x-x---------x-x--|

"Keeping me young, putting life on hold.."

   d d d d d d         u d d  d
E--3-3-3-3-3-3---------3------3~--|
B--3-3-3-3-3-3---------3------3~--|
G--0-0-0-2-0-0------0--0------2~--|
D--0-0-2-0-0-0--0h2----3------0~--|
A--0-0-2-0-3-3---------2------0~--|
E--3-2-x-x-x-x---------x------x~--|


Pre-Verse (x1)


E------------------x--------------|
B--12-12---10--8-8-x-8-8--7--5-5--|
G------------------x--------------|
D------------------x--------------|
A--10-10---9---7-7-x-7-7--5--3-3--|
E------------------x--------------|


E-------------10-------x-------|
B--12-12----10----8-8--x--8-8--|
G----------------------x-------|
D----------------------x-------|
A--10-10---9------7-7--x--7-7--|
E----------------------x-------| This one is for picking.

or

   d  d  udu u  udd d d d d u
E--x--x--x---x--x---x-x-x-x-x--|
B--12-12-13--10-8---8-8-5-7-7--|
G--x--x--x---x--x---x-x-x-x-x--|
D--x--x--x---x--x---x-x-x-x-x--|
A--10-10-10--9--7---7-7-3-5-5--|
E--x--x--x---x--x---x-x-x-x-x--| This one is strumming.


(*You can do either one, but the strumming one is for the song.)


Verse (x3)


"I like to listen while she I stop this train.."

E------------------x--------------|
B--12-12---10--8-8-x-8-8--7--5-5--|
G------------------x--------------|
D------------------x--------------|
A--10-10---9---7-7-x-7-7--5--3-3--|
E------------------x--------------|


E-------------10-------x----------------|
B--12-12----10----8-8--x--8-8---5--7-7--|
G----------------------x----------------|
D----------------------x----------------|
A--10-10---9------7-7--x--7-7---3--5-5--|
E----------------------x----------------|


Pre-Chorus (x1)

                                   d d d d u d
E---5----5-----3----3-----5----5---x---------x~--|
B-7----7-----5----5-----7----7-----5---------5~--|
G----------------------------------0---------0~--|
D----------------------------------0---------0~--|
A-5----5-----3----3-----5----5-----3---------3~--|
E----------------------------------x---------x~--|


Chorus (x3)

                 v
   d d d u u d d d d d u u d d
E--3---------3-3-3---------3-3--|
B--3---------3-3-3---------3-3--|
G--0---------0-0-2---------0-0--|
D--0---------0-0-0---------0-0--|
A--0---------3-3-0---------3-3--|
E--3---------x-x-x---------x-x--|


   d d d d d d         u d d  d
E--3-3-3-3-3-3---------3------3~--|
B--3-3-3-3-3-3---------3------3~--|
G--0-0-0-2-0-0------0--0------2~--|
D--0-0-2-0-0-0--0h2----3------0~--|
A--0-0-2-0-3-3---------2------0~--|
E--3-2-x-x-x-x---------x------x~--|


Bridge

E--x--x--x--------x---x--x--x--x~--|
B--2--3--1--------3---2--3--5--7~--|
G--2--0--0-----0--0---2--0--x--x~--|
D--1--2--2-0h2----4---1--3--x--x~--|
A--x--3--3--------5---x--2--3--5~--|
E--x--x--x--------x---x--x--x--x~--|


Chorus (x1)

E------3--------3--------3------------------|
B------3-3------3-3------3-3----------------|
G----------------------2-------2/4-2-0------|
D----0--------0------0-----------------2-0--|
A-----------3----------------3--------------|
E--3----------------------------------------|

E------3--------3------3-3-x-3-3----------|
B------3-3------3-3----3-3-x-3-3----------|
G----------------------2-2-x-2-2-2/4/2-0--|
D----0--------0--------0-0-x-0-0----------|
A-----------3----------0-0-x-0-0----------|
E--3-------------------x-x-x-x-x----------|


                 v
   d d d u u d d d d d u u d d
E--3---------3-3-3---------3-3--|
B--3---------3-3-3---------3-3--|
G--0---------0-0-2---------0-0--|
D--0---------0-0-0---------0-0--|
A--0---------3-3-0---------3-3--|
E--3---------x-x-x---------x-x--|


   d d d d d d         u d d  d
E--3-3-3-3-3-3---------3------3~--|
B--3-3-3-3-3-3---------3------3~--|
G--0-0-0-2-0-0------0--0------2~--|
D--0-0-2-0-0-0--0h2----3------0~--|
A--0-0-2-0-3-3---------2------0~--|
E--3-2-x-x-x-x---------x------x~--|


Ending

E------------------x--------------|
B--12-12---10--8-8-x-8-8--7--5-5--|
G------------------x--------------|
D------------------x--------------|
A--10-10---9---7-7-x-7-7--5--3-3--|
E------------------x--------------|


"Oh thank heavens, she's so beautiful."

E-------------10-------x--------------3~--|
B--12-12----10----8-8--x--8-8---5--7--3~--|
G----------------------x--------------0~--|
D----------------------x--------------0~--|
A--10-10---9------7-7--x--7-7---3--5--3~--|

Almost there ...

Sign in to get your own page with links to favourite songs and more. You are just one click away...

Login with Facebook Login with Google