Log in

One click and you are in

Login with Facebook Login with Google

Why sign up and log in

Guitar Tabs Explorer
Phoebe Bridgers bass tabs for That funny feeling

That Funny Feeling bass tab by Phoebe Bridgers

Phoebe Bridgers bass tabs for That funny feeling

Bass tabs

Starts at 4:25


G|---------5h6---6---6---6---2---6--6--6----------------------------------------|
D|-----------------------------------------------------------------------1-4----|
A|--2-----------------------------------------2---------2----2----2----2--------|
E|----------------------------------------0------0--1----------2----2-----------|

G|--1--1----------------------2--------------------1--4-------------------------|
D|--------4----------------2-----5/6--9--6---2--4-------1-----------------1-----|
A|----------4---4-4-2---0---------------------------------4---2-----2---2---4---|
E|---------------------------------------------------------------2----2---------|

G|--------------4---------4-------------------------1--4---------------1--------|
D|-----6--4--6---------6-----------2-------2-----2-----------4------4-----------|
A|-4----------------4--------4-2-4----4--4----4-----------2-----2---------------|
E|------------------------------------------------------------------------------|

G|----------------4-----------------------------1---4----8----------------------|
D|-----6-----4h6------------------------------------------------4-----4--1------|
A|-4------4-------------7------------7---2------------------2------2-------2----|
E|-------------------5-----5---5--7----------2----------------------------------|


G|--------4------4----------1---------------------------------------------------|
D|-----6-------6--------4-6-------4-6-2------------------------------------1----|
A|-4---------4------0----------0---------2-------2-----------2-2-2-2-2-2-2------|
E|-------------------------------------------0------0--0--2---------------------|

G|--------------------4-----------4----------2-2--4-----------------4-----------|
D|----------------------4---4--6---------2-2---------4-----4-----6--------6-6---|
A|--4-4-4-4-4-2---0-------0----------0-0----------------2-----2-------4-4-------|
E|--------------2---------------------------------------------------------------|


G|-----------------------6------------------1---------1--4----------------------|
D|--------2-----------6---------6-2---2--2-----2--2-2-------------------1-------|
A|--4-4-----4----0----------0------------------------------2----2----2-----4----|
E|-----------------------------------------------------------2-----2------------|

G|------------------------------------------------------------------------------|
D|------------------------------------------------------------------------------|
A|--------2--2---------2--------2-----------------------------------------------|
E|-0--0---------0--0------0--2--------------------------------------------------|


☠☠☠☠☠☠☠☠☠☠☠☠☠☠☠☠☠☠☠☠☠☠☠☠☠☠☠☠☠☠☠☠☠☠☠☠

| h  Hammer-on
| /  Slide up

☠☠☠☠☠☠☠☠☠☠☠☠☠☠☠☠☠☠☠☠☠☠☠☠☠☠☠☠☠☠☠☠☠☠☠☠

ⓘ Bass guitar tab for 'That Funny Feeling' by Phoebe Bridgers, a female folk artist from Pasadena, California, USA. Phoebe Bridgers was born in 1994.

Almost there ...

Sign in to get your own page with links to favourite songs and more. You are just one click away...

Login with Facebook Login with Google