Log in

One click and you are in

Login with Facebook Login with Google

Why sign up and log in

Guitar Tabs Explorer
Phoebe Bridgers bass tabs for Smoke signals

Bass tabs

Tuning: Standard (E A D G)


Intro:

G|----------5-5-3------------------------------------------------------------|
D|3-3--5-5--------5-5--------------------------------------------------------|
A|---------------------------------------------------------------------------|x2
E|---------------------------------------------------------------------------|


Verse 1:
"i went with you up to"


G|---------5-5-3-------------------------------------------------------------|
D|3-3--5-5-------5-5---------------------------------------------------------|
A|---------------------------------------------------------------------------|x4
E|---------------------------------------------------------------------------|



Chorus:
"you must have been looking for me"

G|------------5-5-3----------------------------------------------------------|
D|3--0--7--5--------5-5------------------------------------------------------|
A|---------------------------------------------------------------------------|x2
E|---------------------------------------------------------------------------|

"burning trash out on the beach"
G|---------------------------------------------------------------------------|
D|5--3--1-1-1-1-1------------------------------------------------------------|
A|---------------------------------------------------------------------------|
E|---------------------------------------------------------------------------|

Bridge 1:29-1:39:

G|---------5-5-3-------------------------------------------------------------|
D|3-3--5-5-------5-5---------------------------------------------------------|
A|---------------------------------------------------------------------------|
E|---------------------------------------------------------------------------|


Verse 2:
"one of your eyes is always half-shut"

G|---------5-5-3-------------------------------------------------------------|
D|3-3--5-5-------5-5---------------------------------------------------------|
A|---------------------------------------------------------------------------|x4
E|---------------------------------------------------------------------------|


Chorus:
"and you must have been looking for me"
G|------------5-5-3----------------------------------------------------------|
D|3--0--7--5--------5-5------------------------------------------------------|
A|---------------------------------------------------------------------------|x2
E|---------------------------------------------------------------------------|

"burning trash out on the beach"
G|---------------------------------------------------------------------------|
D|5--3--1-1-1-1-1------------------------------------------------------------|
A|---------------------------------------------------------------------------|
E|---------------------------------------------------------------------------|


Bridge 2 2:48-2:58:

G|---------5-5-3-------------------------------------------------------------|
D|3-3--5-5-------5-5---------------------------------------------------------|
A|---------------------------------------------------------------------------|
E|---------------------------------------------------------------------------|


Verse 3:
"i wanna live at the holiday inn"

G|---------5-5-3-------------------------------------------------------------|
D|3-3--5-5-------5-5---------------------------------------------------------|
A|---------------------------------------------------------------------------|x4
E|---------------------------------------------------------------------------|


Chorus:
"and you must have been looking for me"

G|------------5-5-3----------------------------------------------------------|
D|3--0--7--5--------5-5------------------------------------------------------|
A|---------------------------------------------------------------------------|x2
E|---------------------------------------------------------------------------|

"burning trash out on the beach"
G|---------------------------------------------------------------------------|
D|5--3--1-1-1-1-1------------------------------------------------------------|
A|---------------------------------------------------------------------------|
E|---------------------------------------------------------------------------|


Bridge 3 4:08-4:18:

G|---------5-5-3-------------------------------------------------------------|
D|3-3--5-5-------5-5---------------------------------------------------------|
A|---------------------------------------------------------------------------|
E|---------------------------------------------------------------------------|


Verse 4:
"i buried a hatchet"

G|---------5-5-3-------------------------------------------------------------|
D|3-3--5-5-------5-5---------------------------------------------------------|
A|---------------------------------------------------------------------------|x4
E|---------------------------------------------------------------------------|


Outro:


G|------------5-5-3----------------------------------------------------------|
D|3--0--7--5--------5-5------------------------------------------------------|
A|---------------------------------------------------------------------------|x4
E|---------------------------------------------------------------------------|
ⓘ Phoebe Bridgers is

Almost there ...

Sign in to get your own page with links to favourite songs and more. You are just one click away...

Login with Facebook Login with Google