Log in

One click and you are in

Login with Facebook Login with Google

Why sign up and log in

Guitar Tabs Explorer
Phoebe Bridgers bass tabs for Kyoto

Bass tabs

Tuning: Standard (E A D G)


Verse 1:
G|---------------------------------------------------------------|
D|---------------------------------------------------------------|
A|-------------------------------------7-7-7-7--7-7-7-7--7-7-7-7-|
E|-7-7-7-7--7-7-7-7--7-7-7-7--7-7-7-7----------------------------|
G|9---9---8------------------------------------------------------|
D|---------------------------------------------------------------|
A|--7---7--------------------------------------------------------|
E|----------7-7-7-7--7-7-7-7--7-7-7-7--7-7-7-7--0-0-0-0--0-0-0-0-|

G|---------------------------------------------------------------|
D|---------------------9---9---9---9---9---9---9-8---------------|
A|------------7-7-7-----------------------------------7---7---7--|
E|-0-0-0-0--0--------7---7---7---7---7---7---7------0---0---0----|

G|---------------------------------------------------------------|
D|-----------------------9---9---9---9---9---9---9-8----2---2---2|
A|--7---7---7---7---7--------------------------------------------|
E|0---0---0---0---0----7---7---7---7---7---7---7------0---0---0--|

G|---------------------------------------------------------------|
D|---2---2---2---2-1-------------------2-2-2-2--2-2-2-2----------|
A|-------------------4-4-4-4--4-4-4-4--------------------2-2-2-2-|
E|-0---0---0---0-------------------------------------------------|

G|---------------------------------------------------------------|
D|--------------4------4-4----------------------2-2-2-2--2-2-2-2-|
A|-2-2-2-2-------------------4-4-4-4--4-4-4-4--------------------|
E|----------2-2---2--2-------------------------------------------|

G|-4-4-4-4--4-4-4-4----------------------------------------------|
D|-------------------4-4-4-4--4-4-4-4--------------------2-2-2-2-|
A|-------------------------------------4-4-4-4--4-4-4-4----------|
E|---------------------------------------------------------------|

G|----------4-4-4-4--4-4-4-4-------------------------------------|
D|-2-2-2-2--------------------4-4-4-4--4-4-4-4-------------------|
A|----------------------------------------------4-4-4-4--4-4-4-4-|
E|---------------------------------------------------------------|

G|---------------------------------------------------------------|
D|-2-2-2-2--2-2-2-2--Rest----------------------------------------|
A|---------------------------------------------------------------|
E|---------------------------------------------------------------|

G|---------------------------------------------------------------|
D|---------------------------------------------------------------|
A|---------------------------------------------------------------|
E|-7-7-7-7--7-7-7-7--7-7-7-7--7-7-7-7--0-0-0-0--0-0-0-0--0-0-0-0-|

G|---------------------------------------------------------------|
D|---------------------------------------------------------------|
A|---------------------------------------------------------------|
E|-0-0-0-0--7-7-7-7--7-7-7-7--7-7-7-7--7-7-7-7--0-0-0-0--0-0-0-0-|

G|---------------------------------------------------------------|
D|---------------------------------------------------------------|
A|---------------------------------------------------------------|
E|-0-0-0-0--0-0-0-0--7-7-7-7--7-7-7-7--7-7-7-7--7-7-7-7--0-0-0-0-|

G|---------------------------------------------------------------|
D|---------------------------------------------------------------|
A|---------------------------------------------------------------|
E|0-0-0-0---0-0-0-0--0-0-0-0--7-7-7-7--7-7-7-7--7-7-7-7--7-7-7-7-|

G|---------------------------------------------------------------|
D|---------------------------------------------------------------|
A|---------------------------------------------------------------|
E|-0-0-0-0--0-0-0-0--0-0-0-0--0-0-0-0--7-7-7-7--7-7-7-7--7-7-7-7-|

G|---------------------------------------------------------------|
D|-----9-----------------------------------9-8-------------------|
A|---------------------------------------------------------------|
E|-7-7---7--0-0-0-0--0-0-0-0--0-0-0-0--0-0------7-7-7-7--7-7-7-7-|

G|---------------------------------------------------------------|
D|--------------9------------------------------------------------|
A|---------------------------------------------------------------|
E|-7-7-7-7--7-7---7--0-0-0-0--0-0-0-0--0-0-0-0--0-0-0-0--12-12-12|

G|---------------------------------------------------------------|
D|-----------------------2-2-2-2--2-2-2-2------------------------|
A|-----4-4-4-4--4-4-4-4--------------------2-2-2-2--2-2-2-2------|
E|-12------------------------------------------------------------|

G|---------------------------------------------------------------|
D|--------------4------4-4----------------------2-2-2-2--2-2-2-2-|
A|-2-2-2-2-------------------4-4-4-4--4-4-4-4--------------------|
E|----------2-2---2--2-------------------------------------------|

G|-4-4-4-4--4-4-4-4----------------------------------------------|
D|-------------------4-4-4-4--4-4-4-4--------------------2-2-2-2-|
A|-------------------------------------4-4-4-4--4-4-4-4----------|
E|---------------------------------------------------------------|

G|----------4-4-4-4--4-4-4-4--------------------6-6-6-6--6-6-6-6-|
D|-2-2-2-2--------------------4-4-4-4--4-4-4-4-------------------|
A|---------------------------------------------------------------|
E|---------------------------------------------------------------|

G|---------------------------------------------------------------|
D|-2-2-2-2--2-2-2-2--Rest----------------------------------------|
A|---------------------------------------------------------------|
E|---------------------------------------------------------------|

G|---------------------------------------------------------------|
D|------------------------------6---6----------------------------|
A|-2-2-2-2--2-2-2-2--4-4-4-4--4---6----7-7-7-7--7-7-7-7--7-7-7-7-|
E|---------------------------------------------------------------|

G|---------------------------------------------------------------|
D|---9---9-------------------------------6---6-------------------|
A|-7---7----2-2-2-2--2-2-2-2--4-4-4-4--4---4----7-7-7-7--7-7-7-7-|
E|---------------------------------------------------------------|

G|-9-9-9-9--9-9-9-9----------------------------------------------|
D|---------------------------------------------------------------|
A|-------------------2-2-2-2--2-2-2-2--4-4-4-4--7-7-7-7--7-7-7-7-|
E|---------------------------------------------------------------|

G|---------------------------------------------------------------|
D|---------------------------------------------------------------|
A|7-7-7-7--7-7-7-7--2-2-2-2--2-2-2-2--4-4-4-4--4-4-4-4--7--------|
E|---------------------------------------------------------------|
E|---------------------------------------------------------------|

ⓘ Phoebe Bridgers is

Almost there ...

Sign in to get your own page with links to favourite songs and more. You are just one click away...

Login with Facebook Login with Google