Log in

One click and you are in

Login with Facebook Login with Google

Why sign up and log in

Guitar Tabs Explorer
Phoebe Bridgers guitar tabs for Demi moore

Guitar tabs with lyrics

Tuning: Standard (E A D G B E)

Two things. One, this song is actually played on a baritone electric guitar tuned to A chord diagramBB Standard with a capo on
sounds pretty much the same, the chords and picking are the exact same on both guitars.

two - Phoebe's picking style is fluid and not strict. Although she uses the same chords, when she plays it
live she doesn't play it the exact same way most performances, and even in the studio recording, she doesn't
play each verse the same way. Just do what sounds good.:)

Intro:
   A chord diagramB minorBm               A chord diagramA13A13          A chord diagramGmaj7Gmaj7
e|-----------------------------------------------5-------------------------|
B|-3--------3----0-----------3-------------------3--------------------0----|
G|---------------------0-------------------0-------------------0-----------|
D|----4-------0-----------4----------4--------4--------4-----------0-------|
A|-2------2----------------------------------------------------------------|
E|------------------5------------3------3-----------3--------3-------------|

*tip, use your thumb for the Gmaj chord, Phoebe does this!

     A chord diagramB minorBm               A chord diagramA13A13          A chord diagramGmaj7Gmaj7
e|-----------------------------------------------5-------------------------|
B|----------3----0-----------3-------------------3--------------------0----| \
G|---------------------0-------------------0-------------------0-----------|  2x
D|----4-------0-----------4----------4--------4--------4-----------0-------| /
A|-2------2----------------------------------------------------------------|
E|------------------5------------3------3-----------3--------3-------------|


Verse 1:
   A chord diagramB minorBm               A chord diagramA13A13          A chord diagramGmaj7Gmaj7
e|-----------------------------------------------5-------------------------|
B|----------3----0-----------3-------------------3--------------------0----|
G|---------------------0-------------------0-------------------0-----------|
D|----4-------0-----------4----------4--------4--------4-----------0-------|
A|-2------2----------------------------------------------------------------|
E|------------------5------------3------3-----------3--------3-------------|

                Take a dirty picture, babe

 A chord diagramB minorBm               A chord diagramA13A13          A chord diagramGmaj7Gmaj7
e|-----------------------------------------------5-------------------------|
B|----------3----0-----------3-------------------3--------------------0----|
G|---------------------0-------------------0-------------------0-----------|
D|----4-------0-----------4----------4--------4--------4-----------0-------|
A|-2------2----------------------------------------------------------------|
E|------------------5------------3------3-----------3--------3-------------|

             I can't sleep and I miss your face

  A chord diagramB minorBm               A chord diagramA13A13          A chord diagramGmaj7Gmaj7
e|-----------------------------------------------5-------------------------|
B|----------3----0-----------3-------------------3--------------------0----|
G|---------------------0-------------------0-------------------0-----------|
D|----4-------0-----------4----------4--------4--------4-----------0-------|
A|-2------2----------------------------------------------------------------|
E|------------------5------------3------3-----------3--------3-------------|


              In my hands and in my knees

  A chord diagramB minorBm               A chord diagramA13A13          A chord diagramGmaj7Gmaj7
e|-----------------------------------------------5-------------------------|
B|----------3----0-----------3-------------------3--------------------0----|
G|---------------------0-------------------0-------------------0-----------|
D|----4-------0-----------4----------4--------4--------4-----------0-------|
A|-2------2----------------------------------------------------------------|
E|------------------5------------3------3-----------3--------3-------------|


                 Tell me what you wanna do to me

  A chord diagramB minorBm                A chord diagramA13A13          A chord diagramAb7Ab7
e|-------------------------------------------------------------------------|
B|----------3----0-----------3-------------0-----3-------------0------3----|
G|---------------------0---------------------------------------------------|
D|----4-------0-----------4----------4--------4---------4-----------4------|
A|-2------2----------------------------------------------------------------|
E|------------------5------------4------4-----------4--------4-------------|


                 Tell me what you'll do, please


Chorus:
                               A chord diagramG MajorG
e|-------------------------------------------------------------------------------------|
B|----------3--------------0-------------------3-----------------3-----------------3---|
G|----0--------------0-------------------0------------------0----------------0---------|
D|-------4-------------------------0--------0--------0---------0------0---------0------|
A|----------------------0--------------------------------------------------------------|
E|-5------------2--------------3------3-----------3------3---------3------3------------|

            I don't wanna be alone.                           I don't wanna be alone anymore

e|----------------------------------------------------------------------------|
B|---------3----------3-------3--------3----------------3---------------3-----|
G|----2----------2--------0--------0--------------0----------------0----------|
D|-0-----0----------0-------0--------0-------0-------0--------0-------0-------|
A|-------------4--------2--------0--------------------------------------------|
E|-----------------------------------------3----3----------3-----3------------|

     A chord diagramB minorBm               A chord diagramA13A13          A chord diagramGmaj7Gmaj7
e|-----------------------------------------------5-------------------------|
B|----------3----0-----------3-------------------3--------------------0----| \
G|---------------------0-------------------0-------------------0-----------|  2x
D|----4-------0-----------4----------4--------4--------4-----------0-------| /
A|-2------2----------------------------------------------------------------|
E|------------------5------------3------3-----------3--------3-------------|


Verse 2:

   A chord diagramB minorBm               A chord diagramA13A13          A chord diagramGmaj7Gmaj7
e|-------------------------------------------------------------------------|
B|----------3----0-----------3-------------------3--------------------0----|
G|---------------------0-------------------0-------------------0-----------|
D|----4-------0-----------4----------4--------4--------4-----------0-------|
A|-2------2----------------------------------------------------------------|
E|------------------5------------3------3-----------3--------3-------------|

        You got quiet on the other line

 A chord diagramB minorBm               A chord diagramA13A13          A chord diagramGmaj7Gmaj7
e|-------------------------------------------------------------------------|
B|----------3----0-----------3-------------------3--------------------0----|
G|---------------------0-------------------0-------------------0-----------|
D|----4-------0-----------4----------4--------4--------4-----------0-------|
A|-2------2----------------------------------------------------------------|
E|------------------5------------3------3-----------3--------3-------------|

       Said the sun was coming up, and I

  A chord diagramB minorBm               A chord diagramA13A13          A chord diagramGmaj7Gmaj7
e|-----------------------------------------------5-----3-------------------|
B|----------3----0-----------3-------------------3-----3--------------0----|
G|---------------------0-------------------0-------------------0-----------|
D|----4-------0-----------4----------4--------4--------4-----------0-------|
A|-2------2----------------------------------------------------------------|
E|------------------5------------3------3-----------3--------3-------------|

       Laughed until I couldn't breathe

  A chord diagramB minorBm               A chord diagramA13A13          A chord diagramGmaj7Gmaj7
e|-----------------------------------------------5-------------------------|
B|----------3----0-----------3-------------------3-----3--------------0----|
G|---------------------0-------------------0--------0h4----------0---------|
D|----4-------0-----------4----------4--------4--------4-----------0-------|
A|-2------2----------------------------------------------------------------|
E|------------------5------------3------3-----------3--------3-------------|

      Now I'm too tired to go to sleep

*If these embellishments are too hard just play like the other verses, Phoebe doesn't play it like this live

 A chord diagramB minorBm                A chord diagramA13A13          A chord diagramAb7Ab7
e|-------------------------------------------------------------------------|
B|----------3----0-----------3-------------0-----3-------------0------3----|
G|---------------------0---------------------------------------------------|
D|----4-------0-----------4----------4--------4---------4-----------4------|
A|-2------2----------------------------------------------------------------|
E|------------------5------------4------4-----------4--------4-------------|

       Now I can't breathe, and I can't sleep


Chorus:

e|-------------------------------------------------------------------------------------|
B|----------3--------------0-------------------3-----------------3-----------------3---|
G|----0--------------0-------------------0------------------0----------------0---------|
D|-------4-------------------------0--------0--------0---------0------0---------0------|
A|----------------------0--------------------------------------------------------------|
E|-5------------2--------------3------3-----------3------3---------3------3------------|

            I don't wanna be stoned.                           I don't wanna be stoned anymore

e|----------------------------------------------------------------------------|
B|---------3----------3-------3--------3----------------3---------------3-----|
G|----2----------2--------0--------0--------------0----------------0----------|
D|-0-----0----------0-------0--------0-------0-------0--------0-------0-------|
A|-------------4--------2--------0--------------------------------------------|
E|-----------------------------------------3----3----------3-----3------------|

                                                                          A chord diagramE MajorE
e|------------------------------------------------------------------------------------------|
B|---------3----------3-------3--------3----------------3---------------0-----------------0-|
G|----2----------2--------0--------0--------------0----------------0--------1-------1-------|
D|-0-----0----------0-------0--------0-------0-------0--------0-------0--------2-------2----|
A|-------------4--------2--------0----------------------------------------------------------|
E|-----------------------------------------3----3----------3-----3--------0-------0---------|

      I don't wanna be alone               Don't wanna be alone anymore

                        A chord diagramG MajorG
e|----------------------------------------------------------------------------|
B|--------0----------0------------3-----------3------------3--------------3---|
G|---1----------1-------------0-----------0------------0-------------0--------|
D|------2----------2------0------0----0-----0------0-----0------0------0------|
A|----------------------------------------------------------------------------|
E|-0----------2---------3----3------3---3--------3---3--------3----3----------|


Outro:

e|----------------------------------------------------------------------------------------|
B|------------3-------3-------3--------------3-------3-------3-------------3-----3-----3--|
G|----------------------------------------------------------------------------------------|
D|----4-----4------4-------4--------4-----4-------4-------4--------4-----4-----4-----4----|
A|-0-----0------0-------0-----------------------------------------------------------------|
E|-------------------------------0-----0-------0-------2--------3-----3-----3-----3-------|

e|----------------------------------------------------------------------------------------|
B|------------3-------3-------3--------------3-------3-------3-------------3-----3-----3--|
G|----------------------------------------------------------------------------------------|
D|----4-----4------4-------4--------4-----4-------4-------4--------4-----4-----4-----4----|
A|-0-----0------0-------0-----------------------------------------------------------------|
E|-------------------------------0-----0-------0-------2--------3-----3-----3-----3-------|

                          I've got a good feeling

e|----------------------------------------------------------------|
B|------------3-------3-------3--------------3-------3-------3----|
G|----------------------------------------------------------------|
D|----4-----4------4-------4--------4-----4-------4-------4-------|
A|-0-----0------0-------0--------0-----0-------0-------0----------|  \
E|----------------------------------------------------------------|
                                                                     (Play this pattern rest of song!)

e|----------------------------------------------------------------|  /
B|------------3-------3-------3--------------3-------3--------3---|
G|----------------------------------------------------------------|
D|----4-----4------4-------4--------4-----4-------4-------4-------|
A|----------------------------------------------------------------|
E|-0-----0------0--------2------3-----3------3---------3----------|


************************************

| h   Hammer-on

************************************

↓ Add and view comments below ↓

What do you think about this song and these tabs?

Add your comments, questions, rant or a thumbs up below.

Almost there ...

Sign in to get your own page with links to favourite songs and more. You are just one click away...

Login with Facebook Login with Google