Log in

One click and you are in

Login with Facebook Login with Google

Why sign up and log in

Guitar Tabs Explorer
Brent Faiyaz bass tabs for Rehab winter in paris

Rehab Winter In Paris bass tab by Brent Faiyaz

Brent Faiyaz bass tabs for Rehab winter in paris

Bass tabs

Tuning: Standard (E A D G)


Intro:

G|------------------------------------|
D|------------------------------------| x3
A|------------------------------------|
E|---3----0-----3------6-----5--------|
           i got too many hoes
Verse 1:

G|------------------------------------|
D|------------------------------------|
A|------------------------------------|
E|-0---3-----6-----5------------------|

but they aint you
 you like to put that shit on ya nose

G|------------------------------------|
D|------------------------------------|
A|------------------------------------|
E|---0----3------6------5-------------|


Intro: this song is played on bass but can be played on 6 string guitar as well.

G|------------------------------------|
D|------------------------------------|
A|------------------------------------|
E|---3-----0------3------6------5-----|

G|------------------------------------|
D|------------------------------------|
A|------------------------------------|
E|---0------3-----6------5------------|
just play the throughout the song

Almost there ...

Sign in to get your own page with links to favourite songs and more. You are just one click away...

Login with Facebook Login with Google