Log in

One click and you are in

Login with Facebook Login with Google

Why sign up and log in

Guitar Tabs Explorer
The Breeders bass tabs for Walk it off

Bass tabs

Tuning: Standard (E A D G)


Verse 1:

G|-----------------|----------------|----------------|-----------------|
D|-----------------|----------------|----------------|-----------------|
A|--7-7-7-7-7-7-7-7|----------------|-7-7-7-7-7-7-7-7|-----------------|
E|-----------------|-5-5-5-5-5-5-5-5|----------------|-5-5-5-5-5-5-5-5-|

G|-----------------|----------------|----------------|-----------------|
D|-----------------|----------------|----------------|-----------------|
A|--7-7-7-7-7-7-7-7|----------------|-7-7-7-7-7-7-7-7|-----------------|
E|-----------------|-5-5-5-5-5-5-5-5|----------------|-5-5-5-5-5-5-5-5-|

G|---------------------------|---------------|---------------------|
D|---------------------------|---------------|---------------------|
A|---------------------------|---------------|---------------------|
E|--/12-12-12-12-12-12-12-12-|5-5-5-5-5-5-5-5|-8-8-8-8-10-10-10-10-|

G|-----------------|----------------|----------------|-----------------|
D|-----------------|----------------|----------------|-----------------|
A|--7-7-7-7-7-7-7-7|----------------|-7-7-7-7-7-7-7-7|-----------------|
E|-----------------|-5-5-5-5-5-5-5-5|----------------|-5-5-5-5-5-5-5-5-|

G|---------------------------|-------------------|
D|---------------------------|-------------------|
A|---------------------------|-------------------|
E|--/12-12-12-12-12-12-12-12-|-5-5-5-5-5-5-5-5-5-|


Chorus:

G|-----------------|----------------|----------------|-----------------|------------------------|
D|-----------------|----------------|----------------|-----------------|------------------------|
A|--7-7-7-7-7-7-7-7|----------------|-7-7-7-7-7-7-7-7|-----------------|------------------------|
E|-----------------|-5-5-5-5-5-5-5-5|----------------|-7-7-7-7-7-7-7-7-|-10-10-10-10-10-10-10-10|


Bridge:

G|-----|-----|-----|-----|
D|-----|-----|-----|-----|
A|-----|-----|-7---|-----|
E|-0---|-5---|-----|-5---|


Verse 2:

G|-----------------|----------------|----------------|-----------------|
D|-----------------|----------------|----------------|-----------------|
A|--7-7-7-7-7-7-7-7|----------------|-7-7-7-7-7-7-7-7|-----------------|
E|-----------------|-5-5-5-5-5-5-5-5|----------------|-5-5-5-5-5-5-5-5-|

G|-----------------|----------------|----------------|-----------------|
D|-----------------|----------------|----------------|-----------------|
A|--7-7-7-7-7-7-7-7|----------------|-7-7-7-7-7-7-7-7|-----------------|
E|-----------------|-5-5-5-5-5-5-5-5|----------------|-5-5-5-5-5-5-5-5-|

G|-----------------|----------------|----------------|-----------------|------|
D|-----------------|----------------|----------------|-----------------|------|
A|--7-7-7-7-7-7-7-7|----------------|----------------|-----------------|------|
E|-----------------|-7-7-7-7-7-7-7-7|-7-7-7-7-7-7-7-7|-7-7-7-7-7-7-7-7-|-7\---|


Chorus:

G|-----------------|----------------|----------------|-----------------|
D|-----------------|----------------|----------------|-----------------|
A|--7-7-7-7-7-7-7-7|----------------|-7-7-7-7-7-7-7-7|-----------------|
E|-----------------|-5-5-5-5-5-5-5-5|----------------|-5-5-5-5-5-5-5-5-|

G|-----------------|------------------|-----------------|-----|
D|-----------------|------------------|-----------------|-----|
A|-7-7-7-7-7-7-7-7-|------------------|-7-7-7-7-7-7-7-7-|-----|
E|-----------------|-5-5-5-5-5-5-5-5-5|-----------------|-5---|


Verse 3:

G|-----------------|----------------|----------------|-----------------|
D|-----------------|----------------|----------------|-----------------|
A|--7-7-7-7-7-7-7-7|----------------|-7-7-7-7-7-7-7-7|-----------------|
E|-----------------|-5-5-5-5-5-5-5-5|----------------|-7-7-7-7-7-7-7-7-|

G|------|-----|-----|----------------|------------------|-----------------|
D|------|-----|-----|----------------|------------------|-----------------|
A|------|-----|-----|-7-7-7-7-7-7-7-7|------------------|-7-7-7-7-7-7-7-7-|
E|------|-0---|-5---|----------------|-5-5-5-5-5-5-5-5-5|-----------------|

G|----------------|----------------|-----------------|--------------------------|
D|----------------|----------------|-----------------|--------------------------|
A|----------------|-7-7-7-7-7-7-7-7|-----------------|--------------------------|
E|-5-5-5-5-5-5-5-5|----------------|-5-5-5-5-5-5-5-5-|-/12-12-12-12-12-12-12-12-|

G|------------------|
D|------------------|
A|------------------|
E|-5-5-5-5-8-8-10-10|


Chorus:

G|-----------------|----------------|----------------|-----------------|
D|-----------------|----------------|----------------|-----------------|
A|--7-7-7-7-7-7-7-7|----------------|-7-7-7-7-7-7-7-7|-----------------|
E|-----------------|-5-5-5-5-5-5-5-5|----------------|-5-5-5-5-5-5-5-5-|

G|-----------------|----------------|----------------|-----------------|
D|-----------------|----------------|----------------|-----------------|
A|--7-7-7-7-7-7-7-7|----------------|-7-7-7-7-7-7-7-7|-----------------|
E|-----------------|-5-5-5-5-5-5-5-5|----------------|-5-5-5-5-5-5-5-5-|

G|-----------------|----------------|----------------|-----------------|
D|-----------------|----------------|----------------|-----------------|
A|--7-7-7-7-7-7-7-7|----------------|-7-7-7-7-7-7-7-7|-----------------|
E|-----------------|-5-5-5-5-5-5-5-5|----------------|-5---------------|


************************************


| /  Slide up
| \  Slide down


************************************

Almost there ...

Sign in to get your own page with links to favourite songs and more. You are just one click away...

Login with Facebook Login with Google