Log in

One click and you are in

Login with Facebook Login with Google

Why sign up and log in

Guitar Tabs Explorer
Laura Branigan bass tabs for Shattered glass

Bass tabs with lyrics

Shattered Glass


Intro: (Drum Star
                    (Play This Bit x2)
G|---------------------------------------------------|
D|---------------------------------------------------|
A|---------------------------------------------------|
E|-6--6--6--6--6--6--6--6---6--6--6--6--6--6--6--6-4-|
Verse 1:
G|-------------------------------------------------------------|
D|-------------------------------------------------------------|
A|-------------------------5--5--5--5---6--6--6--6--6--6--6--6-|
E|-6--6--6--6--6--6--6--6--------------------------------------|

G|------------------------------------------------------------|
D|------------------------------------------------------------|
A|-8--8--8--8-------------------------------------------------|
E|------------6--6--6--6--6--6--6--6-4-6--6--6--6--6--6--6--6-|

G|----------------------------------------------------------------|
D|----------------------------------------------------------------|
A|-5--5--5--5---6--6--6--5---3--3--3--3---5--5--5--5---6--6--6--6-|
E|----------------------------------------------------------------|

                               (Break)
G|-------------------------------------------------------------|
D|-------------5--5--5--5--------------------------------------|
A|-8--8--8--8--------------5--5--5--5---6--6--6--6---8-8-8-8-8-|
E|-------------------------------------------------------------|


Chorus:
G|---------------------------------------------------|
D|---------------------------------------------------|
A|---------------------------------------------------|
E|-6--6--6--6--6--6--6--6-4-6--6--6--6--6--6--6--6-4-|

G|-------------------------------------------------|
D|-------------------------------------------------|
A|-------------------------6--6--6--6---8--8--8--8-|
E|-6--6--6--6--6--6--6--6--------------------------|

Interlude:
G|---------------------------------------------------|
D|---------------------------------------------------|
A|---------------------------------------------------|
E|-6--6--6--6--6--6--6--6---6--6--6--6--6--6--6--6-4-|

Verse 2:
G|-------------------------------------------------------------|
D|-------------------------------------------------------------|
A|-------------------------5--5--5--5---6--6--6--6--6--6--6--6-|
E|-6--6--6--6--6--6--6--6--------------------------------------|

G|------------------------------------------------------------|
D|------------------------------------------------------------|
A|-8--8--8--8-------------------------------------------------|
E|------------6--6--6--6--6--6--6--6-4-6--6--6--6--6--6--6--6-|

G|----------------------------------------------------------------|
D|----------------------------------------------------------------|
A|-5--5--5--5---6--6--6--5---3--3--3--3---5--5--5--5---6--6--6--6-|
E|----------------------------------------------------------------|

                               (Break)
G|-------------------------------------------------------------|
D|-------------5--5--5--5--------------------------------------|
A|-8--8--8--8--------------5--5--5--5---6--6--6--6---8-8-8-8-8-|
E|-------------------------------------------------------------|


Chorus:
G|---------------------------------------------------|
D|---------------------------------------------------|
A|---------------------------------------------------|
E|-6--6--6--6--6--6--6--6-4-6--6--6--6--6--6--6--6-4-|

G|------------------------------------------------------------------------|
D|------------------------------------------------------------------------|
A|------------------------6--6--6--6---8--8--8--8-------------------------|
E|-6--6--6--6--6--6--6--6-------------------------6--6--6--6--6--6--6--6\-|


Bridge:
G|------------------------------------------------------------------------|
D|-----------------------------------------------------------3--3--3--3-4-|
A|-------------------------1--1--1--1--1--1--1--1-------------------------|
E|-3--3--3--3--3--3--3--3-------------------------3--3--3--3--------------|

G|----------------------------------------------------------------------|
D|-5--5--5--5-------------------------------------5--5--5--5------------|
A|------------5--5--5--5---6--6--6--6--6--6--6--6------------5--5--5--5-|
E|----------------------------------------------------------------------|

            (Break)
G|------------------------|
D|------------------------|
A|-6--6--6--6---8-8-8-8-8-|
E|------------------------|


Outro: (Repeat Outro to Fade/End)
G|---------------------------------------------------|
D|---------------------------------------------------|
A|---------------------------------------------------|
E|-6--6--6--6--6--6--6--6-4-6--6--6--6--6--6--6--6-4-|

G|-------------------------------------------------|
D|-------------------------------------------------|
A|-------------------------6--6--6--6---8--8--8--8-|
E|-6--6--6--6--6--6--6--6--------------------------|


I gave you everything I had
You broke it up and you made it bad
I'm not the kind who can take it alone
I've got nothing more for you
I want somebody who needs me too
I've given up, boy
I'm chasing my joy
And you can make your own
You're not the only one
Go out and have your fun
"Cos my time will come
You can shatter glass
With your heart of stone
But you won't get far on your own
You keep running hot and blowing cold
And everything you hold
Just falls apart like shattered glass
It really doesn't matter to me
Where you're going and who you see
I know that I can make it this time
It doesn't matter any more
Since you've gone and walked out that door
I made a new start
I found a true heart
I'm gonna make it mine
You're not the only one
Go out and have your fun
'Cos my time will come
You can shatter glass
With your heart of stone
But you won't get far on your own
You keep running hot and blowing cold
And everything you hold
Just falls apart like shattered glass
You can shatter glass
With your heart of stone
But you won't get far on your own
You keep running hot and blowing cold
And everything you hold

Almost there ...

Sign in to get your own page with links to favourite songs and more. You are just one click away...

Login with Facebook Login with Google