Log in

One click and you are in

Login with Facebook Login with Google

Why sign up and log in

Guitar Tabs Explorer
Brandy tabs for I wanna be down

Guitar tabs

-Brandy-

Lyrics & Music: Keith Crouch, Kipper Jones
From The Album: Brandy (1994)
Tabbed by Linus Olsson (Linuso@hotmail.com)


The chords in this song are just A chord diagramB minorBm (x24432) to A chord diagramE minorEm (022000) all the way.
Try to play them on a guitar along with the song. It sounds nice!

Interlude:


h = hammer on
b = bend
r = release bend
\ = slide down

e:------------------------------------------------------------|
B:--12------10--------------8---10----------------------------|
G:-----11------9----9---11----------11------7---7h9-----------|
D:---------------------------------------9-----------9--------|
A:------------------------------------------------------------|
E:------------------------------------------------------------|

e:-----------------------------9b10r9-----------------------------|
B:--12------10----------------------------10---12-----------------|
G:-----11------9----9---11--12---------11----------12---11--12\9--|
D:----------------------------------------------------------------|
A:----------------------------------------------------------------|
E:----------------------------------------------------------------|


Keyboard Chords:


e:----------------------|
B:-------------8--------|
G:---7---------9--------|
D:---9------------------|
A:----------------------|
E:----------------------|


Bass Line:


G:-----------------------------------------|
D:-----------------------------------------|
A:--2--------2-2------------------------0--|

Other versions of I Wanna Be Down

I wanna be downChords

Almost there ...

Sign in to get your own page with links to favourite songs and more. You are just one click away...

Login with Facebook Login with Google