Log in

One click and you are in

Login with Facebook Login with Google

Why sign up and log in

Guitar Tabs Explorer
Charles Bradley bass tabs for Changes

Bass tabs

Tuning: Standard (E A D G)

Key: C

Difficulty: Novice
Intro & Verse:
  1 & 2 & 3 & 4 &  1 & 2 & 3 & 4 &  1 & 2 & 3 & 4 &  1 & 2 & 3 & 4 &
G|-----------------|-----------------|-----------------|-----------------|
D|-------5---------|-------5---------|-------7---------|-------5---------|
A|-3-------3-------|-3-------3-------|-5-------5-------|-3-------3-------|
E|-----3-------3-5-|-----3-------3-5-|-----5-------5-7-|-----3-------3-5-|

  1 & 2 & 3 & 4 &  1 & 2 & 3 & 4 &  1 & 2 & 3 & 4 &  1 & 2 & 3 & 4 &
G|-----------------|-----------------|-----------------|-----------------|
D|-------5---------|-------5---------|-------7---------|-------5---------|
A|-3-------3-------|-3-------3-------|-5-------5-------|-3-------3-------|
E|-----3-------3-5-|-----3-------3-5-|-----5-------5-7-|-----3-------3-5-|


Chorus:
  1 & 2 & 3 & 4 &         1  2  3 & 4 & (triplets)
G|------------------------|   G|-----------------|
D|-3---3-2---2-0----0-----| X4 D|-5---5---7---7---| X4
A|-----------------3----3-|   A|--5---5---7---7--|
E|---------------------3--|   E|---3---3---5---5-|


Verse:
  1 & 2 & 3 & 4 &  1 & 2 & 3 & 4 &  1 & 2 & 3 & 4 &  1 & 2 & 3 & 4 &
G|-----------------|-----------------|-----------------|-----------------|
D|-------5---------|-------5---------|-------7---------|-------5---------|
A|-3-------3-------|-3-------3-------|-5-------5-------|-3-------3-------|
E|-----3-------3-5-|-----3-------3-5-|-----5-------5-7-|-----3-------3-5-|

  1 & 2 & 3 & 4 &  1 & 2 & 3 & 4 &  1 & 2 & 3 & 4 &  1 & 2 & 3 & 4 &
G|-----------------|-----------------|-----------------|-----------------|
D|-------5---------|-------5---------|-------7---------|-------5---------|
A|-3-------3-------|-3-------3-------|-5-------5-------|-3-------3-------|
E|-----3-------3-5-|-----3-------3-5-|-----5-------5-7-|-----3-------3-5-|


Chorus:
  1 & 2 & 3 & 4 &         1  2  3 & 4 & (triplets)
G|------------------------|   G|-----------------|
D|-3---3-2---2-0----0-----| X4 D|-5---5---7---7---| X4
A|-----------------3----3-|   A|--5---5---7---7--|
E|---------------------3--|   E|---3---3---5---5-|

ⓘ Bass guitar tab for 'Changes' by Charles Bradley, a male r&b artist from Gainesville, USA. Charles Bradley was born in 1948.

Almost there ...

Sign in to get your own page with links to favourite songs and more. You are just one click away...

Login with Facebook Login with Google