Log in

One click and you are in

Login with Facebook Login with Google

Why sign up and log in

Guitar Tabs Explorer
Boys Like Girls bass tabs for Heroheroine

Bass tabs

intro: X1


g----------------------------------------------------------------------|
d------------------------------------7777777777777777-9999999999999999-|
a--7777777777777777-2222222222222222-----------------------------------|
e----------------------------------------------------------------------|
  1e+a2e+a3e+a4e+a 1e+a2e+a3e+a4e+a 1e+a2e+a3e+a4e+a 1e+a2e+a3e+a4e+a


verse (1): X2


g----------------------------------------------------------------------|
d------------------------------------7777777777777777-9999999999999999-|
a--7777777777777777-2222222222222222-----------------------------------|
e----------------------------------------------------------------------|
  1e+a2e+a3e+a4e+a 1e+a2e+a3e+a4e+a 1e+a2e+a3e+a4e+a 1e+a2e+a3e+a4e+a



pre-chorus (1): X1


g------------------------------------|
d------------------------------------|
a--5-5-5557-77-7777-3-3-3333-33-3333-|
e------------------------------------|
  1e+a2e+a3e+a4e+a 1e+a2e+a3e+a4e+a

g------------------------------------|
d------------------------------------|
a--5-5-5557-77-7777-3~~~~~~~~~~~~~~~-|
e------------------------------------|
  1e+a2e+a3e+a4e+a 1e+a2e+a3e+a4e+a


chorus (1): X1


g---------------------------------------------------------------------|
d---------------------------------------------------------------------|
a---------------------------------------------------------------------|
e--77-77-77---------33-33-33---------55-55-55---------------11--------|
  1e+a2e+a3e+a4e+a 1e+a2e+a3e+a4e+a 1e+a2e+a3e+a4e+a 1e+a2e+a3e+a4e+a


verse (1): X1


g----------------------------------------------------------------------|
d------------------------------------7777777777777777-9999999999999999-|
a--7777777777777777-2222222222222222-----------------------------------|
e----------------------------------------------------------------------|
  1e+a2e+a3e+a4e+a 1e+a2e+a3e+a4e+a 1e+a2e+a3e+a4e+a 1e+a2e+a3e+a4e+a


verse (2): X1


g----------------------------------------------------------------------|
d------------------------------------77777777777\2-2-/9999999999999999-|
a--77777777777-7-7--22222222222-2-2------------------------------------|
e----------------------------------------------------------------------|
  1e+a2e+a3e+a4e+a 1e+a2e+a3e+a4e+a 1e+a2e+a3e+a4e+a 1e+a2e+a3e+a4e+a



pre-chorus (1): X1


g------------------------------------|
d------------------------------------|
a--5-5-5557-77-7777-3-3-3333-33-3333-|
e------------------------------------|
  1e+a2e+a3e+a4e+a 1e+a2e+a3e+a4e+a

g------------------------------------|
d------------------------------------|
a--5-5-5557-77-7777-3~~~~~~~~~~~~~~~-|
e------------------------------------|
  1e+a2e+a3e+a4e+a 1e+a2e+a3e+a4e+a


chorus (1): X1


g---------------------------------------------------------------------|
d---------------------------------------------------------------------|
a---------------------------------------------------------------------|
e--77-77-77---------33-33-33---------55-55-55-55-5----55-55-55-55-5---|
  1e+a2e+a3e+a4e+a 1e+a2e+a3e+a4e+a 1e+a2e+a3e+a4e+a 1e+a2e+a3e+a4e+a


g----------------------------------------------------------------------|
d----------------------------------------------------------------------|
a----------------------------------------------------------------------|
e--7-7-7-7-7-7-7-7--3-3-3-3-3-3-3-3--55-55-55-55-5----55-55-55-5555555-|
  1e+a2e+a3e+a4e+a 1e+a2e+a3e+a4e+a 1e+a2e+a3e+a4e+a 1e+a2e+a3e+a4e+a


bridge: x1


g----------------------------------------------------------------------|
d----------------------------------------------------------------------|
a--3333333333333333-5555555555555555-0000000000000000-1111111111111111-|
e----------------------------------------------------------------------|
  1e+a2e+a3e+a4e+a 1e+a2e+a3e+a4e+a 1e+a2e+a3e+a4e+a 1e+a2e+a3e+a4e+a

g----------------------------------------------------------------------|
d----------------------------------------------------------------------|
a--3333333333333333-5555555555555555-0000000000000000-0000000000000000-|
e----------------------------------------------------------------------|
  1e+a2e+a3e+a4e+a 1e+a2e+a3e+a4e+a 1e+a2e+a3e+a4e+a 1e+a2e+a3e+a4e+a


pre-chorus (2): X1


g------------------------------------|
d------------------------------------|
a--5~~~~~~7~~~~~~~~-3~~~~~~~~~~~~~~~-|
e------------------------------------|
  1e+a2e+a3e+a4e+a 1e+a2e+a3e+a4e+a

g------------------------------------|
d------------------------------------|
a--5~~~~~~7~~~~~~~~-3~~~~~~~~~~~~~~~-|
e------------------------------------|
  1e+a2e+a3e+a4e+a 1e+a2e+a3e+a4e+a


chorus (2): x1

g---------------------------------------------------------------------|
d---------------------------------------------------------------------|
a---------------------------------------------------------------------|
e--7-7-7-7-7-7-7-7--3-3-3-3-3-3-3-3--55-55-55-55-5----55-55-55-55-5---|
  1e+a2e+a3e+a4e+a 1e+a2e+a3e+a4e+a 1e+a2e+a3e+a4e+a 1e+a2e+a3e+a4e+a


g---------------------------------------------------------------------|
d---------------------------------------------------------------------|
a---------------------------------------------------------------------|
e--7-7-7-7-7-7-8-9--3-3-3-3-3-3-3-3--55-55-55-55-5----55-55-55-55-5---|
  1e+a2e+a3e+a4e+a 1e+a2e+a3e+a4e+a 1e+a2e+a3e+a4e+a 1e+a2e+a3e+a4e+a

g----------------------------------------------------------------------|
d----------------------------------------------------------------------|
a----------------------------------------------------------------------|
e--7777777777777879-3333333333333333-5555555555555555-5555555555555555-|
  1e+a2e+a3e+a4e+a 1e+a2e+a3e+a4e+a 1e+a2e+a3e+a4e+a 1e+a2e+a3e+a4e+a

g----------------------------------------------------------------------|
d----------------------------------------------------------------------|
a----------------------------------------------------------------------|
e--7777777777777879-3333333333333333-5555555555555555-5555555555555555-|
  1e+a2e+a3e+a4e+a 1e+a2e+a3e+a4e+a 1e+a2e+a3e+a4e+a 1e+a2e+a3e+a4e+a


outro: x1

g---------------------------------------------------------------------|
d---------------------------------------------------------------------|
a---------------------------------------------------------------------|
e--5~~~~~~~~~~~~~~~~~~~~~~~~~~~~~~~~~~~~~~~~~~~~~~~~~~~~~~~~~~~~~~~~~~
  1e+a2e+a3e+a4e+a 1e+a2e+a3e+a4e+a 1e+a2e+a3e+a4e+a 1e+a2e+a3e+a4e+a

thanks. and if you got any suggestions on corrections and what not email me at

Almost there ...

Sign in to get your own page with links to favourite songs and more. You are just one click away...

Login with Facebook Login with Google