Log in

One click and you are in

Login with Facebook Login with Google

Why sign up and log in

Guitar Tabs Explorer
Boys Like Girls bass tabs for Heart heart heartbreak

Heart Heart Heartbreak bass tab - Boys Like Girls

Boys Like Girls bass tabs for Heart heart heartbreak

Bass tabs with lyrics

Intro

HeartBreak~  Heart heart heartbreak~
g|-------------------------------------------------------------------------------------|
d|-------------------------------------------------------------------------------------|
a|-------------------------------------------------------------------------------------|
D|99---------------99---------------------------99---00---55---77---99---00---55---77--|
Verse:

Girl, don’t say you love me when you’re out the door,
g|----|
d|----|
a|----|
D|99--|
Woah~ yeah
g|-------------------|
d|-------------------|
a|-------------------|
D|99---00---55---77--|
Cause I know things were different than they were before~
g|---------------------------------------------------------------------------------------|
d|---------------------------------------------------------------------------------------|
a|---------------------------------------------------------------------------------------|
D|99-------------------------------------------------------------------------------------|
Woah~ Yeah
g|---------------------------------------------------------------------------------------|
d|---------------------------------------------------------------------------------------|
a|---------------------------------------------------------------------------------------|
D|99---00---55---77----------------------------------------------------------------------|
You killed me with your kiss, it’s so hard to resist when you look me in the eyes tonight
g|----------------------------|
d|----------------------------|
a|----------------------------|
D|99999999999999999999999955--|

Chorus:

We’re headed for a heart, heart, heartbreak, and I don’t ever ever wanna hear you say
g|--|
d|--|
a|--|
D|0000000077777777101010101010101055555555

*******************10^ not 1 or 0****************************

Don’t say you love me, Don’t even, Don’t say you love me, you’re leaving
g|--|
d|--|
a|--|
D|0000000077777777101010101010101055555555

We’re headed for a heart, heart, heartbreak, and I don’t ever ever wanna hear you say
g|--|
d|--|
a|--|
D|0000000077777777101010101010101055555555

Don’t say you love me, Don’t even, Don’t say you love me, you’re leaving
g|-------------------------------------------------------------------------------------|
d|-------------------------------------------------------------------------------------|
a|-------------------------------------------------------------------------------------|
D|0000000077777777101010101010101055555555

(Repeat Verse)

(Repeat Chorus)


Bridge:

And I’m sick and tired of this whole situation, here comes another fight
g|-----------------------------------|
d|-----------------------------------|
a|-----------------------------------|
D|77---------77--------99--------55--|

Beating me down with the same conversation, no, don’t say you love me tonight.
g|-----------------------------------------|
d|-----------------------------------------|
a|-----------------------------------------|
D|77--------77----------10 10----------55--|

During the guitar solo, play the chorus.

(Repeat Intro)

Almost there ...

Sign in to get your own page with links to favourite songs and more. You are just one click away...

Login with Facebook Login with Google