Log in

One click and you are in

Login with Facebook Login with Google

Why sign up and log in

Guitar Tabs Explorer
Boys Like Girls tabs for Five minutes to midnight

Guitar tabs

Five Minutes To Midnight
                   |This one has to have 2 people|
                   |or it sounds dumb 91% correct|

Pre-Intro
e-----------------------------------|
B-----------------------------------|
G---776677--776677--776677--776677--|
D---------66------66------66------66|
A-----------------------------------|
E-----------------------------------|
Intro
Guitar 1
e-----------------------------------|\
B-----------------------------------| \
G---776677--776677--776677--776677--|  \
D---------66------66------66------66|  / X2
A-----------------------------------| /
E-----------------------------------|/
Guitar 2
e-----------------------------------------------------------------|
B-----------------------------------------------------------------|
G--7777777777777777------------------9999999999999999-------------|
D--7777777777777777-7777777777777777-9999999999999999-5---9---7---| X1
A--5555555555555555-7777777777777777-7777777777777777-5---9---7---|
E-------------------5555555555555555------------------3~--7~--5~--|


Verse
e-----------------------------------------------------------------|
B-----------------------------------------------------------------|
G--7777777777777777------------------9999999999999999-777777777777|
D--7777777777777777-7777777777777777-9999999999999999-777777777777| X2
A--5555555555555555-7777777777777777-7777777777777777-555555555555|
E-------------------5555555555555555------------------------------|
Palm Mute********** **************** **************** ************

Pre-Chorus
e---------------------|\
B---------------------| \
G-------9999-777777777|  \
D--7777-9999-555555555|  / X2
A--7777-7777-555555555| /
E--5555---------------|/
 "You know you wanna...

Chorus
e-----------------------------------------------------------------|
B-----------------------------------------------------------------|
G--7777777777777777------------------9999999999999999-777777777777|
D--7777777777777777-7777777777777777-9999999999999999-777777777777| X2
A--5555555555555555-7777777777777777-7777777777777777-555555555555|
E-------------------5555555555555555------------------------------|
 "Turn it up. It's Five Minutes To Midnight...


Verse 2

Verse
e-----------------------------------------------------------------|
B-----------------------------------------------------------------|
G------------------------------------9999999999999999-777777777777|
D--5----------------7777777777777777-9999999999999999-777777777777| X2
A--5---------------7777777777777777-7777777777777777-555555555555|
E--3----------------5555555555555555------------------------------|
Palm Mute           **************** **************** ************
     "Like air...


Pre-Chorus
e---------------------|\
B---------------------| \
G-------9999-777777777|  \
D--7777-9999-555555555|  / X2
A--7777-7777-555555555| /
E--5555---------------|/
 "You know you wanna...

Chorus
e-----------------------------------------------------------------|
B-----------------------------------------------------------------|
G--7777777777777777------------------9999999999999999-777777777777|
D--7777777777777777-7777777777777777-9999999999999999-777777777777| X2
A--5555555555555555-7777777777777777-7777777777777777-555555555555|
E-------------------5555555555555555------------------------------|
 "Turn it up. It's Five Minutes To Midnight...


Riff
e-----------------------------------------------------------------|
B-----------------------------------------------------------------|
G--7777777777777777-----------------------------------------------|
D--7777777777777777-7777777777777777-9--9-7--9-5------------------|X2
A--5555555555555555-7777777777777777-9--9-7--7-5------------------|
E-------------------5555555555555555-7--7-5--5-3------------------|
 "And when the clock strikes 12...
e---------------------|\
B---------------------| \
G--7-7-77-7-7-7777----|  \
D--7-7-77-7-7-7777----|  / X2
A---------------------| /
E---------------------|/

Chorus
e-----------------------------------------------------------------|
B-----------------------------------------------------------------|
G--7777777777777777------------------9999999999999999-777777777777|
D--7777777777777777-7777777777777777-9999999999999999-777777777777| X2
A--5555555555555555-7777777777777777-7777777777777777-555555555555|
E-------------------5555555555555555------------------------------|

Other versions of Five Minutes To Midnight

Five minutes to midnightChords
Five minutes to midnight (Ver. 2)Chords
Five minutes to midnight (Ver. 2)Tabs

Almost there ...

Sign in to get your own page with links to favourite songs and more. You are just one click away...

Login with Facebook Login with Google