Log in

One click and you are in

Login with Facebook Login with Google

Why sign up and log in

Guitar Tabs Explorer
Boys Like Girls tabs for Broken man

Guitar tabs

Heres the Lead Guitar For broken Man, I couldnt get the Rhythm Guitar =P


Intro (I think you add Lots of Reverb)
E---------------------------------------------------------------------|
B---------------------------------------------------------------------|
G--9-9-9-9-9-9-9-9--8-8-8-8-8-8-8-8--6-6-6-6-6-6-6-6--4-4-4-4-4-4-4-4-|
D---------------------------------------------------------------------|
A---------------------------------------------------------------------|
E---------------------------------------------------------------------|

^ Play that 4 times, then play
Bridge
E---------------------------------------------------------------------|
B---------------------------------------------------------------------|
G-x-x-x-x-x-x-x-x-x-x-x-x-x-x-x-x-x-x-x-x-x-x-x-x-x-x-----------------|
D-x-x-x-x-x-x-x-x-x-x-x-x-x-x-x-x-x-x-x-x-x-x-x-x-x-x-----------------|
A-x-x-x-x-x-x-x-x-x-x-x-x-x-x-x-x-x-x-x-x-x-x-x-x-x-x-----------------|
E-x-x-x-x-x-x-x-x-x-x-x-x-x-x-x-x-x-x-x-x-x-x-x-x-x-x-----------------|


Chorus
E---------------------------------------------------------------------|
B---------------------------------------------------------------------|
G--8--------10-------------7------------------------------------------|
D--8-x8-----10-x8--10------7-x8---------------------------------------|
A--6---------8-----10-x8---5------------------------------------------|
E-------------------8-------------------------------------------------|

Other versions of Broken Man

Broken manChords

Almost there ...

Sign in to get your own page with links to favourite songs and more. You are just one click away...

Login with Facebook Login with Google