Guitar Tabs Explorer
Boyce Avenue guitar tabs for Lovely mess

Lovely Mess tab


Be the first to rate

Lovely Mess tab by Boyce Avenue

Guitar tabs

Print

Tuning: DAGEAE


Intro:

E|-------0---------------0---------------0-------------------------|
A|-----0-------0-------0-------0-------0-----0-------------0h2-4-0-|
E|---------0-----------------------------------0-------------------|
D|-4---------------12------11----\-7-------------------------------|
A|-------------------------------------------------0---------------|
D|-4---------------12--------------7-------------------------------|

E|-------0---------------0---------------0-------------------------|
A|-----0-------0-------0-------0-------0-----0---------------------|
E|---------0-----------------------------------0-------------------|
D|-4---------------12------11----\-7-------------------------------|
A|-------------------------------------------------0---------------|
D|-4---------------12--------------7-------------------------------|


Verse 1:

E|-------0---------------0---------------0-------------------------|
A|-----0-------0-------0-------0-------0-----0-------------0h2-4-0-|
E|---------0-----------------------------------0-------------------|
D|-4---------------12------11----\-7-------------------------------|
A|-------------------------------------------------0---------------|\
D|-4---------------12--------------7-------------------------------| \
                                                                      X2
E|-------0---------------0---------------0-------------------------| /
A|-----0-------0-------0-------0-------0-----0---------------------|/
E|---------0-----------------------------------0-------------------|
D|-4---------------12------11----\-7-------------------------------|
A|-------------------------------------------------0---------------|
D|-4---------------12--------------7-------------------------------|


Chorus 2:

E|-------0---------------0-----------------------------------------|
A|-----0-------0-------0-------0------------------<12>-------------|
E|---------0-----------------------5--------------<12>-------------|
D|-4---------------0-----------------------------------------------|
A|-------------------------4-------0-------------------------------|
D|-4---------------0-----------------------------------------------|

E|-------0---------------0-----------------------------------------|
A|-----0-------0-------0-------0-------------0-2-2h4----2p0--------|
E|---------0---------------4-------5-----------------------4-------|
D|-4---------------0-----------------------------------------------|
A|---------------------------------0-------------------------------|
D|-4---------------0-----------------------------------------------|

E|-------0---------------0-----------------------------------------|
A|-----0-------0-------0-------0------------------<12>-------------|
E|---------0-----------------------5--------------<12>-------------|
D|-4---------------0-----------------------------------------------|
A|-------------------------4-------0-------------------------------|
D|-4---------------0-----------------------------------------------|

E|-------0---------------0---------------0-------0-------0---------|
A|-----0-----0---------0-----0---------0-------0-------0-----------|
E|-------------4---------------2-----------------------------2--4--|
D|-2---------------4---------------7-------6-------4---------0--2--|
A|-----------------------------------------------------------------|
D|-2---------------4---------------7-------6-------0---------0--2--|

E|-------0-------0-------0-----------------------------------------|
A|-----0-------0-------0-----0-------------------------------------|
E|-5-------4-------2-----------2---4---------------5-------4-------|
D|-4-------2-------0---------------2---------------4-------2-------|
A|-----------------------------------------------------------------|
D|-4-------2-------0---------------2---------------4-------2-------|



E|-------0---------------0---------------0-------------------------|
A|-----0-------0-------0-------0-------0-----0-------------0h2-4-0-|
E|---------0-----------------------------------0-------------------|
D|-4---------------12------11----\-7-------------------------------|
A|-------------------------------------------------0---------------|
D|-4---------------12--------------7-------------------------------|

E|-------0---------------0---------------0-------------------------|
A|-----0-------0-------0-------0-------0-----0---------------------|
E|---------0-----------------------------------0-------------------|
D|-4---------------12------11----\-7-------------------------------|
A|-------------------------------------------------0---------------|
D|-4---------------12--------------7-------------------------------|


Verse 2:

E|-------0---------------0---------------0-------------------------|
A|-----0-------0-------0-------0-------0-----0-------------0h2-4-0-|
E|---------0-----------------------------------0-------------------|
D|-4---------------12------11----\-7-------------------------------|
A|-------------------------------------------------0---------------|\
D|-4---------------12--------------7-------------------------------| \
                                                                      X2
E|-------0---------------0---------------0-------------------------| /
A|-----0-------0-------0-------0-------0-----0---------------------|/
E|---------0-----------------------------------0-------------------|
D|-4---------------12------11----\-7-------------------------------|
A|-------------------------------------------------0---------------|
D|-4---------------12--------------7-------------------------------|


Chorus 2:

E|-------0---------------0-----------------------------------------|
A|-----0-------0-------0-------0------------------<12>-------------|
E|---------0-----------------------5--------------<12>-------------|
D|-4---------------0-----------------------------------------------|
A|-------------------------4-------0-------------------------------|
D|-4---------------0-----------------------------------------------|

E|-------0---------------0-----------------------------------------|
A|-----0-------0-------0-------0-------------0-2-2h4----2p0--------|
E|---------0---------------4-------5-----------------------4-------|
D|-4---------------0-----------------------------------------------|
A|---------------------------------0-------------------------------|
D|-4---------------0-----------------------------------------------|

E|-------0---------------0-----------------------------------------|
A|-----0-------0-------0-------0------------------<12>-------------|
E|---------0-----------------------5--------------<12>-------------|
D|-4---------------0-----------------------------------------------|
A|-------------------------4-------0-------------------------------|
D|-4---------------0-----------------------------------------------|

E|-------0---------------0---------------0-------0-------0---------|
A|-----0-----0---------0-----0---------0-------0-------0-----------|
E|-------------4---------------2-----------------------------2--4--|
D|-2---------------4---------------7-------6-------4---------0--2--|
A|-----------------------------------------------------------------|
D|-2---------------4---------------7-------6-------0---------0--2--|

E|-------0-------0-------0-----------------------------------------|
A|-----0-------0-------0-----0-------------------------------------|
E|-5-------4-------2-----------2---4---------------5-------4-------|
D|-4-------2-------0---------------2---------------4-------2-------|
A|-----------------------------------------------------------------|
D|-4-------2-------0---------------2---------------4-------2-------|



E|-------0---------------0---------------0-------------------------|
A|-----0-------0-------0-------0-------0-----0-------------0h2-4-0-|
E|---------0-----------------------------------0-------------------|
D|-4---------------12------11----\-7-------------------------------|
A|-------------------------------------------------0---------------|
D|-4---------------12--------------7-------------------------------|

E|-------0---------------0---------------0-------------------------|
A|-----0-------0-------0-------0-------0-----0---------------------|
E|---------0-----------------------------------0-------------------|
D|-4---------------12------11----\-7-------------------------------|
A|-------------------------------------------------0---------------|
D|-4---------------12--------------7-------------------------------|


Bridge:

E|-------0---------------0---------------0---------------0---------|
A|-----0-----0---------0-----0---------0-------------0-------0-----|
E|-------------0---------------0-----------------------0-------0---|
D|-9---------------7---------------4-------6---7-------------------|
A|-----------------------------------------------------------------|
D|-9---------------7---------------4-------6---7-------------------|

E|-------0---------------0---------------0---------------0---------|
A|-----0-----0---------0-----0---------0-----0---------0-----0-----|
E|-------------0---------------0---------------0---------------0---|
D|-0---------------2---------------4---------------4---------------|
A|-----------------------------------------------------------------|
D|-0---------------2---------------4---------------4---------------|

E|-------0---------------0---------------0---------------0---------|
A|-----0-----0---------0-----0---------0-------------0-------0-----|
E|-------------0---------------0-----------------------0-------0---|
D|-9---------------7---------------4-------6---7-------------------|
A|-----------------------------------------------------------------|
D|-9---------------7---------------4-------6---7-------------------|

E|-------0---------------0---------------0---------------0---------|
A|-----0-----0---------0-----0---------0-------------0-------0-----|
E|-------------0---------------0-----------------------0-------0---| x2
D|-0---------------2---------------0-------2---4-------------------|
A|-----------------------------------------------------------------|
D|-0---------------2---------------0-------2---4-------------------|

E|---------------------------------|
A|---------------------------------|
E|-2-------------------------------|
D|-0-------------------------------|
A|---------------------------------|
D|-0-------------------------------|


Chorus 2:

E|-------0---------------0-----------------------------------------|
A|-----0-------0-------0-------0------------------<12>-------------|
E|---------0-----------------------5--------------<12>-------------|
D|-4---------------0-----------------------------------------------|
A|-------------------------4-------0-------------------------------|
D|-4---------------0-----------------------------------------------|

E|-------0---------------0-----------------------------------------|
A|-----0-------0-------0-------0-------------0-2-2h4----2p0--------|
E|---------0---------------4-------5-----------------------4-------|
D|-4---------------0-----------------------------------------------|
A|---------------------------------0-------------------------------|
D|-4---------------0-----------------------------------------------|

E|-------0---------------0-----------------------------------------|
A|-----0-------0-------0-------0------------------<12>-------------|
E|---------0-----------------------5--------------<12>-------------|
D|-4---------------0-----------------------------------------------|
A|-------------------------4-------0-------------------------------|
D|-4---------------0-----------------------------------------------|

E|-------0---------------0---------------0-------0-------0---------|
A|-----0-----0---------0-----0---------0-------0-------0-----------|
E|-------------4---------------2-----------------------------2--4--|
D|-2---------------4---------------7-------6-------4---------0--2--|
A|-----------------------------------------------------------------|
D|-2---------------4---------------7-------6-------0---------0--2--|

E|-------0-------0-------0-----------------------------------------|
A|-----0-------0-------0-----0-------------------------------------|
E|-5-------4-------2-----------2---4---------------5-------4-------|
D|-4-------2-------0---------------2---------------4-------2-------|
A|-----------------------------------------------------------------|
D|-4-------2-------0---------------2---------------4-------2-------|


Outro:

E|-------0---------------0---------------0-------------------------|
A|-----0-------0-------0-------0-------0-----0-------------0h2-4-0-|
E|---------0-----------------------------------0-------------------|
D|-4---------------12------11----\-7-------------------------------|
A|-------------------------------------------------0---------------|
D|-4---------------12--------------7-------------------------------|

E|-------0---------------0---------------0-------------------------|
A|-----0-------0-------0-------0-------0-----0---------------------|
E|---------0-----------------------------------0-------------------|
D|-4---------------12------11----\-7---------------7-------6-------|
A|-----------------------------------------------------------------|
D|-4---------------12--------------7---------------7-------6-------|

E|-------0---------------0---------------0-------------------------|
A|-----0-------0-------0-------0-------0-----0-------------0h2-4-0-|
E|---------0-----------------------------------0-------------------|
D|-4---------------12------11----\-7-------------------------------|
A|-------------------------------------------------0---------------|
D|-4---------------12--------------7-------------------------------|

E|-------0---------------------------------------------------------|
A|-----0----0------------------------------------------------------|
E|---------------0-------0---------------------2-------------------|
D|-4-------------------------------2-----------0-------------------|
A|-----------------------0-----------------------------------------|
D|-4-------------------------------------------0-------------------|