Guitar Tabs Explorer
Boyce Avenue guitar tabs for Love lockdown acoustic

Love Lockdown Acoustic tab


Be the first to rate

Love Lockdown Acoustic tab by Boyce Avenue

Guitar tabs

Print

Tabbed and arranged by: Alejandro Manzano of Boyce Avenue

www.facebook.com/boyceavenue

Tuning: D chord diagramDD  A chord diagramAA  D chord diagramDD  G chord diagramGG  B chord diagramBB  E chord diagramEE (Capo 3rd fret)

x = mute/slap

Verse:
--------------x-|
--------------x-|
-2-2-5-5-2-2--x-|
-2-2-5-5-2-2--x-| (play 4x)
-0-0-3-3-0-0--x-|
--------------x-|

---------------x-|
---------------x-|
-7-7-10-10-7-7-x-|
-7-7-10-10-7-7-x-| (play 3x)
-5-5-8--8--5-5-x-|
---------------x-|

--------------x-|
--------------x-|
--------------x-|
-5-5-5-5-7-7--x-| (play 1x)
-5-5-5-5-7-7--x-|
-5-5-5-5-7-7--x-|

Chorus:
-0-0-0-0-0-0--x-|
-1-1-1-1-1-1--x-|
-2-2-0-0-2-2--x-|
-2-2-2-2-2-2--x-| (play 4x)
-0-0-3-3-0-0--x-|
--------------x-|

--------------x-|
-3-3-1-1-3-3--x-|
-2-2-2-2-2-2--x-|
-0-0-3-3-0-0--x-| (play 3x)
-0-0-3-3-0-0--x-|
--------------x-|

---------0-0--x-|
-0-0-0-0-1-1--x-|
-0-0-0-0-2-2--x-|
-0-0-0-0-2-2--x-| (play 1x)
-x-x-x-x-0-0--x-|
-5-5-5-5------x-|

Chorus Variation (Outro):
---------0-0--x-|
-0-0-0-0-1-1--x-|
-0-0-0-0-0-0--x-|
-0-0-0-0-2-2--x-| (play 4x)
-3-3-3-3-3-3--x-|
-3-3-3-3-3-3--x-|

---------0-0--x-|
-0-0-0-0-1-1--x-|
-0-0-0-0-2-2--x-|
-0-0-0-0-2-2--x-| (play 4x)
-x-x-x-x-0-0--x-|
-5-5-5-5------x-|

Last Chords:
-----0-0-0-0-|
-0-0-0-0-1-1-|
-0-0-0-0-2-2-|
-0-0-0-0-2-2-|
-x-x-0-0-0-0-|

Comment this song and these guitar tabs

Do you have corrections, comments on the guitar tabs, thoughts about the song or a message to the author? Write them below.