Guitar Tabs Explorer
Boyce Avenue guitar tabs for It will rain (Ver. 2)

It Will Rain tab


Be the first to rate

It Will Rain tab by Boyce Avenue (Ver. 2)

Guitar tabs

Print

Intro:

e|---------------------------|
B|-10-9---9------10-9--------|
G|-9----9-9------9----9-9----|
D|----------------------11---|
A|-0-------------0------11---|
E|--------9-------------9----|

Verse 1:

e|---------------------------------|
B|-2---5---2---5---3-------3-------|
G|-2---6---2---6---4---2---4---1---|
D|-2---6---2---6---4---4---4---2---|
A|-0---4---0---4---2---4---2---2---|
E|---------------------2-------0---|

e|-----------------------------------------------------------|
B|-2-------5-------2-------5-------3-------2-------3-------0-|
G|---2-------6-------2-------6-------4-------2-------4-----1-|
D|-----2-------6-------2-------6-------4-------4-------4---2-|
A|-0-------4-------0-------4-------2---------------2---------|
E|–----------------------------------------2---------------0-|

Chorus 1:

e|------------------------------------|
B|-10---10---9---9---9---9---10---9---|
G|----9----9---9---9---9---9----9---9-|
D|-0----------------------------------| <B>(3x)</B chord diagramBB>
A|-----------7----------------9---7---|
E|-------------------9----------------|

e|--------------|
B|------7-----9-|
G|----7---7---9-|
D|------------9-|
A|------------7-|
E|-7------------|

Interlude 1:
e|---------------------------|
B|-10-9---9------10-9--------|
G|-9----9-9------9----9-9----|
D|----------------------11---|
A|-0-------------0------11---|
E|--------9-------------9----|

Verse 2:

e|--------------------------------------------------------------|
B|-2-------5-------2-------5-------3-------2-------3-------0-2-3|
G|---2-------6-------2-------6-------4-------2-------4-----1----|
D|-----2-------6-------2-------6-------4-------4-------4---2----|
A|-0-------4-------0-------4-------2---------------2-------2----|
E|–----------------------------------------2---------------0----|

e|--------------------------------------------------------|
B|-2-----2-------5----5--------2-----2-------5-----5------|
G|---2------2------6-----6-------2------2------6------6---|
D|-----2------2------6-----6-------2------2------6------6-|
A|-0-------------4-------------0-------------4------------|
E|--------------------------------------------------------|

e|----------------------------------------------|
B|-3-----3-------2-----2-------3-----3--------0-|
G|---4------4------2------2------2------2-----1-|
D|-----4------4------4------4------4------4---2-|
A|-2---------------------------2--------------2-|
E|---------------2----------------------------0-|

Chorus 2:

e|------------------------------------|
B|-10---10---9---9---9---9---10---9---|
G|----9----9---9---9---9---9----9---9-|
D|-0----------------------------------| <B>(3x)</B chord diagramBB>
A|-----------7----------------9---7---|
E|-------------------9----------------|

e|--------------|
B|------7-----9-|
G|----7---7---9-|
D|------------9-|
A|------------7-|
E|-7------------|

Interlude 2:

e|-------------------------------|
B|-10-9---9---------10-9---------|
G|-9----9-9-----9---9----9-9--9--|
D|-----------11------------11----|
A|-0----------------0------11----|
E|--------9----------------9-----|

Bridge:

e|------------------------------------------------------|
B|-3-----3------5-----5------3-----3------5-----5-------|
G|---4-----4------6-----6------4-----4------6-----6-----|
D|-----4-----4------6-----6------4-----4------6-----6---|
A|-2------------4------------2------------4-------------|
E|------------------------------------------------------|

e|-------------------------------------|
B|-7---7---7---7---9---9---9---9---9---|
G|---7---7---7---7---9---9---9---9-----|
D|-------------------------------------|
A|-5---------------7-------------------|
E|-------------------------------------|

e|-----------------------------------------|
B|-10---9---9---10-9---10---9---9---10-9---|
G|-9----9---9---9--9---9----9---9---9--9---|
D|-0-------------------0-------------------|
A|------7-------9--7--------7-------9--7---|
E|----------9-------------------9----------|

e|------------------------------------|
B|-10---10---9---9---9---9---10---9---|
G|----9----9---9---9---9---9----9---9-|
D|-0----------------------------------|
A|-----------7----------------9---7---|
E|-------------------9----------------|

e|----------------|
B|------7-------9-|
G|----7---7-----9-|
D|--------------9-|
A|--------------7-|
E|-7--------------|

Outro:

e|--------------------------------------|
B|-10-9---9---------10-9----------------|
G|-9----9-9-----9---9----9-9--9---------|
D|-----------11------------11---11------|
A|-0----------------0------11------0~---|
E|--------9----------------9------------|

Other versions of It Will Rain

It will rainChords
It will rainTabs

Comment this song and these guitar tabs

Do you have corrections, comments on the guitar tabs, thoughts about the song or a message to the author? Write them below.