Search tabs and chords

Search for song, artist or band

Log in

One click and you are in

Login with Facebook Login with Google

Why sign up and log in

Guitar Tabs Explorer
Boyce Avenue guitar tabs for I want it that way

Guitar tabs

Boyce Avenue – I Want It That Way (Backstreet Boys Cover)
http://www.youtube.com/watch?v=bwnGM_I2WPk
Tabbed by: Esperance

Support Boyce Avenue - Those guys really know how to make great music!

If you have any corrections/suggestions please drop me a line and feel free to rate this
tab :)
>Florian-Le@live.de<

--
 I also recorded myself playing the song (which actually sucked pretty bad - but i dont
have time do make a new video at the moment),in case you have problems reading this tab:
--
Tuning:
Standard(EADGBe)
Guitar 1 (Alejandro Manzano)

x=mute
/=slide
~=let note ring

Intro: (pluck with fingers)
-----------------------------------|
-----0-----1^0-------0-------3-----|
-------0-------0-----------0---0---|(2x)
---2-----2---------2-----0---------|
-----------------3-----------------|
-0---------------------3-----------|

Verse 1: (pluck with fingers)
-----------------------------------|
-----0-----1^0-------0-------3-----|
-------0-------0-----------0---0---|(3x)
---2-----2---------2-----0---------|
-----------------3-----------------|
-0---------------------3-----------|

-----------------2-3-|
-------0-----0---3-3-|
-----2-----------2---|
---2-------2-----0---|
-------------------x-|
-0-------0---------3-|

-----------------------------------|
-----0-----1^0-------0-------3-----|
-------0-------0-----------0---0---|(3x)
---2-----2---------2-----0---------|
-----------------3-----------------|
-0---------------------3-----------|

-----------------2-3-|
-------0-----0---3-3-|
-----2-----------2---|
---2-------2-----0---|
-------------------x-|
-0-------0---------3-|

Chorus 1:(strum with pick)
-0---2-0---0---2-0---0---2-3---0---3-3-|
-1---3-0---1---3-0---1---3-3---0---2-3-|
-0---2-0---0---2-0---0---2-0---0---3-0-|
-2---0-2---2---0-2---2---0-0---2---0-0-|
-3---0-2---3---0-2---3---0-x---2---0-x-|
-------0---------0---------3---0-----3-|

Verse 2: (pluck with pick)
-----------------------------------|
-----0-----1^0-------0-------3-----|
-------0-------0-----------0---0---|(3x)
---2-----2---------2-----0---------|
-----------------3-----------------|
-0---------------------3-----------|

-----------------2-3-|
-------0-----0---3-3-|
-----2-----------2---|
---2-------2-----0---|
-------------------x-|
-0-------0---------3-|

Chorus 2:
-0---2-0---0---2-0---0---2-3---0-----|
-1---3-0---1---3-0---1---3-3---0---4-|
-0---2-0---0---2-0---0---2-0---0---4-|
-2---0-2---2---0-2---2---0-0---2---4-|
-3---0-2---3---0-2---3---0-x---2---2-|
-------0---------0---------3---0-----|

Bridge:
-------0-------------0-------------0-------------0-------|
-----0---0---------0---0-------------0-------------1-----|
---0-------0-----0-------0-------0-----0-------2-----2---|
-2-----------2-0-----------0---2---------2---2---------2-|
-----------------------------3-------------0-------------|
---------------------------------------------------------|

-------0-------------0-------------0-------3-2-|
-----0---0---------0---0-------------0-----3-3-|
---0-------0-----0-------0-------0-----0---2-2-|
-2-----------2-0-----------0---2---------2-0-0-|
-----------------------------3-------------0-0-|
-----------------------------------------------|

Interlude:
-0---2-0---0---2-0---0---2-3---0---3-|
-1---3-0---1---3-0---1---3-3---0---2-|
-0---2-0---0---2-0---0---2-0---0---3-|
-2---0-2---2---0-2---2---0-0---2---0-|
-3---0-2---3---0-2---3---0-x---2---0-|
-------0---------0---------3---0-----|

Solo:
-------------------------------------------------------------|
---------2^3-3/5-5-----0---------2^3^2^0---5-5---10-9---9-10-|
-----2^4-----------2-4---2-4-4/6---------2-----7------9------|
-2^4---------------------------------------------------------|
-------------------------------------------------------------|
-------------------------------------------------------------|

-----------9-10-10/12-12~----------------------------------------x-x-x-x-|
------9-10----------------/10-12-10-12-14-10/9-7~-2~-5~-9---9-10-x-x-x-x-|
-9-11-----------------------------------------------------9------x-x-x-x-|
-----------------------------------------------------------------x-x-x-x-|
-----------------------------------------------------------------x-x-x-x-|
-----------------------------------------------------------------x-x-x-x-|

Chorus 3:
-0---0---0---0---0---0---0---0---0---0---0---0---|
-3---0---2---3---0---0---2---0---2---0---0---2---|
-2---1---2---2---1---2---3---1---2---2---1---2---|
-0---2---2---0---2---4---0---2---2---4---2---2---|
-0---2---0---0---2---4---0---2---0---4---2---0---|
-x---0-------x---0---2---x---0-------2---0-------|

-0---0---0---0---0---0---0---0---0---0---0---0---|
-3---0---2---3---0---2---2---0---2---0---0---2---|
-2---1---2---2---1---2---3---1---2---2---1---2---|
-0---2---2---0---2---2---0---2---2---4---2---2---|
-0---2---0---0---2---0---0---2---0---4---2---0---|
-x---0-------x---0-------x---0-------2---0-------|

Outro:
---------0-0---|
---------0-2---|
-------2-1-2---|
-----4---2-2---|
---4-----2-0---|

Almost there ...

Sign in to get your own page with links to favourite songs and more. You are just one click away...

Login with Facebook Login with Google