Guitar Tabs Explorer
Boyce Avenue guitar tabs for Good riddance time of your life acoustic

Good Riddance Time Of Your Life Acoustic tab


Be the first to rate

Good Riddance Time Of Your Life Acoustic tab by Boyce Avenue

Guitar tabs

Print

Tabbed by: Alejandro Manzano of Boyce Avenue

www.facebook.com/boyceavenue

video of me playing/singing it:
http://www.youtube.com/watch?v=FjH3Jaohij8

Tuning: E chord diagramEE  A chord diagramAA  D chord diagramDD  G chord diagramGG  B chord diagramBB  E chord diagramEE  (standard)

x = mute

Intro/Verse 1: (loose plucking)
--------------------------------------------------|
------3-----------3-----------3-----------3-------|
--------0---0-------0---0---0---0---0---2---2---0-|
---0------------0---------------------0-------0---|
--------------------------3-------3---------------|
-3--------3---3-------3---------------------------|

Chorus:
-------------------------------------------------|
-----0-----------3-----------3-----------3-------|
-------0---0---2---2---0---0---0---0-------0---0-|
---2-----2---0-------0-----------------0-----0---|
-------------------------3-------3---------------|
-0-----------------------------------3-----------|

-------------------------------------------------|
-----0-----------3-----------3-----------3-------|
-------0---0---2---2---0---0---0---0-------0---0-|
---2-----2---0-------0-----------------0-----0---|
-------------------------3-------3---------------|
-0-----------------------------------3-----------|

-------------------------------------------------|
-----0-----------3-----------0-----------3-------|
-------0---0-------0---0-------0---0-------0---0-|
---2-----2-----0-----0-----2-----2-----0-----0---|
-------------------------------------------------|
-0-----------3-----------0-----------3-----------|

-------------------------|
-----0-----------3-------|
-------0---0---2---2---0-|
---2-----2---0-------0---|
-------------------------|
-0-----------------------|


Verse 2: (loose strumming)
-x----x----x----x-|
-3----3----3----3-|
-0----0----0----2-|
-0----0----x----0-|
-x----x----3----0-|
-3----3-----------|

Pre-Chorus 2: (loose strumming)
-0----x----x----x----0----x----x----x-|
-0----3----3----3----0----3----3----3-|
-0----2----0----0----0----2----0----0-|
-2----0----x----0----2----0----x----0-|
-2----0----3----x----2----0----3----x-|
-0--------------3----0--------------3-|

-0----x----0----x----0----2-|
-0----3----0----3----0----3-|
-0----0----0----0----0----2-|
-2----0----2----0----2----0-|
-2----x----2----x----2----0-|
-0----3----0----3----0------|

Solo:
-3----3----3----2-|
-3----3----3----3-|
-0----0----0----2-| (play 4x)
-0----0----x----0-|
-x----x----3----0-|
-3----3-----------|

-0----2----3----3----0----2----3----3-|
-0----3----3----3----0----3----3----3-|
-0----2----0----0----0----2----0----0-|
-2----0----x----0----2----0----x----0-|
-2----0----3----x----2----0----3----x-|
-0--------------3----0--------------3-|

-0----3----0----3----0----2-|
-0----3----0----3----0----3-|
-0----0----0----0----0----2-|
-2----0----2----0----2----0-|
-2----x----2----x----2----0-|
-0----3----0----3----0------|

-3----3----3----2-|
-3----3----3----3-|
-0----0----0----2-| (play 2x)
-0----0----x----0-|
-x----x----3----0-|
-3----3-----------|

Chorus 3:
-------------------------------------------------|
-----0-----------3-----------0-----------3-------|
-------0---0-------0---0-------0---0-------0---0-|
---2-----2-----0-----0-----2-----2-----0-----0---|
-------------------------------------------------|
-0-----------3-----------0-----------3-----------|

-------------------------|
-----0-----------3-------|
-------0---0---2---2---0-|
---2-----2---0-------0---|
-------------------------|
-0-----------------------|

-------------------------------------------------|
------3-----------3----------3-----------3-------|
--------0---0----------0---0---0---0---2---2---0-|
---0------------0----0---------------0-------0---|
-------------------------3-------3---------------|
-3--------3---3----------------------------------|

----------------------------------------------------|
------3-----3-----3-----------3-----------3-------3-|
--------0---0-------0---0---0---0---0---2---2-2---0-|
---0------------0---------------------0---------0-0-|
--------------------------3-------3---------------x-|

Comment this song and these guitar tabs

Do you have corrections, comments on the guitar tabs, thoughts about the song or a message to the author? Write them below.