Search tabs and chords

Search for song, artist or band

Log in

One click and you are in

Login with Facebook Login with Google

Why sign up and log in

Guitar Tabs Explorer
Boyce Avenue guitar tabs for Girls like you acoustic

Guitar tabs

Tuning: Standard (E A D G B E)

Difficulty: Intermediate

Intro:

d|----------------------------------------|
A|----------------------------------------|
F|----------------------------------------||pm
C|----5-5-5-5-5-3-3-2-2---5-5-5-5-5-7-7-2-|
G|--3-------------------3-----------------|
D|----------------------------------------|

d|--------------------------------------------|
A|--------------------------------------------|
F|--------------------------------------------||pm
C|----5-5-5-5-5-3-3-2-2--0-0-2-0-0-0-0-2-0-0--|
G|--3-----------------------------------------|
D|--------------------------------------------|

verse 1:

d|----------------------|
A|----------------------|
F|--5---------2---------|
C|--5----5----2----3----|
G|--3----5----0----3----|
D|-------3---------1----|

d|----------------------|
A|------------1----1----|
F|--5---------2----2----|
C|--5----5----2----3----|
G|--3----5----0---------|
D|-------3---------1----|

d|----------------------|
A|--1----0----1----1----|
F|--0----0----2----2----|
C|--2----0----2----3----|
G|--3---------0---------|
D|-------3---------1----|

d|----------------------------------------------|
A|------5----------3----------5----------6-5----|
F|--------5----------4----------5------------5--||
C|----5-----5----5-----5----7-----7----7--------|
G|--3---------------------0----------8----------|
D|-------------3--------------------------------|


d|--------------------------------------------------------------|
A|----------5--------------3--------------5--------------6-5----|
F|------5-----5--------4-----4--------5-----5--------5-------5--||
C|----5---5-----5----5---5-----5----7---7-----7----7---7--------|
G|--3-----------------------------0--------------8--------------|
D|-----------------3--------------------------------------------|

brigde:

d|-----------------------------------------|
A|-----------------------------------------|
F|-----------------------------------------||pm
C|----5-5-5-5-5-3-3-2-2---5-5-5-5-5-7-7-2--|
G|--3--------------------------------------|
D|----------------------3------------------|


d|-----------------------------------------------|
A|-----------------------------------------------|
F|-----------------------------------------------|
C|----5-5-5-5-5-3-3-2-2---0-2-0-0-0-0-2-0-0------||pm
G|--0---------------------------------------3----|
D|----------------------1------------------------|


end:

d|-----------------------------------------|
A|-----------------------------------------|
F|-----------------------------------------||pm
C|----5-5-5-5-5-3-3-2-2---5-5-5-5-5-7-7-2--|
G|--3--------------------------------------|
D|----------------------3------------------|


d|-----------------------------------------------|
A|-----------------------------------------------|
F|-----------------------------------------------|
C|----5-5-5-5-5-3-3-2-2---0-2-0-0-0-0-2-0-0------||pm
G|--0---------------------------------------3----|
D|----------------------1------------------------|

Other versions of Girls Like You Acoustic

Girls like youTabs

Almost there ...

Sign in to get your own page with links to favourite songs and more. You are just one click away...

Login with Facebook Login with Google