Guitar Tabs Explorer
Boyce Avenue guitar tabs for Circus just dance acoustic

Circus Just Dance Acoustic tab


Be the first to rate

Circus Just Dance Acoustic tab by Boyce Avenue

Guitar tabs

Print

Tabbed and arranged by: Alejandro Manzano of Boyce Avenue

www.facebook.com/boyceavenue

video of us playing/singing it: http://www.youtube.com/watch?v=QMfVDldnybQ

Tuning: D chord diagramDD  A chord diagramAA  D chord diagramDD  E chord diagramEE  A chord diagramAA  E chord diagramEE

< > = harmonic
 ^  = hammer on
 /  = slide up
 x  = mute

Intro:
-----------------------------------------------|
---------<7>--------------------<7>------------|
------<7>----<7>---------<7>--------<7>--------|
---<7>-----------<7>--<7>---<7>--------<7>-----|
-----------------------------------------------|
-4------------------4--------------------------|

---------------------------<12>---|
---------<7>------------<12>------|
------<7>----<7>------------------|
---<7>-----------<7>--------------|
----------------------------------|
-0--------------------------------|

-----------------------------------------------|
---------<7>--------------------<7>------------|
------<7>----<7>---------<7>--------<7>--------|
---<7>-----------<7>--<7>---<7>--------<7>-----|
-----------------------------------------------|
-4------------------4--------------------------|

-----------------------|
---------<7>-----------|
------<7>----<7>-------|
---<7>-----------<7>---|
-----------------------|
-0---------------------|

Verse: (palm muting)
------------------------|
------------------------|
------------------------|
-4-4----4-4----4-4----4-| (play 2x)
-4-4----2-2----0-0----2-|
-4-4----2-2----0-0----2-|

---------------|
---------------|
-----4---5---4-|
-4---2---0---2-|
-4---2---0---2-|
-4---2---0---2-|

Pre-Chorus: (finger picking)
-------0---------------0-------------0-----0---|
-----0-----0---0-----0-----0---0---0---------0-|
-2^4---------4-----4---------4-/-9-----7-------|
-----------------------------------------------|
-----------------------------------------------|
-4-------4-------2-------2-------0-------0-----|

-----0-----0-----|
---0---------0---|
-5-----4-------0-|
-----------------|
-0---------------|
---------6-------|

-------0---------------0-------------0-----0---|
-----0-----0---0-----0-----0---0---0---------0-|
-2^4---------4-----4---------4-/-9-----7-------|
-----------------------------------------------|
-----------------------------------------------|
-4-------4-------2-------2-------0-------0-----|

-----0-----0-----|
---0---------0---|
-5-----4-------4-|
-----------------|
-0---------------|
---------6-------|

Chorus: (strumming)
-0----0----0----0-|
-0----0----0----0-|
-0----0----0----2-|
-x----x----x----0-|
-4----7----2----0-|
-4----7----2----0-|

Breakdown: (palm muting)
---------------|
---------------|
-----4---5---4-|
-4---2---0---2-|
-4---2---0---2-|