Log in

One click and you are in

Login with Facebook Login with Google

Why sign up and log in

Guitar Tabs Explorer
Boy Pablo bass tabs for Rest up

Bass tabs

  • Difficulty: Beginner
Tuning: Standard (E A D G)

♫ Intro:

no bass
Pre♫ Chorus:

G|---------------|---------------|---------------|---------------|
D|---------------|---------------|---------------|---------------|
A|6-------6-6----|4-------4-4---4|3-------3-3---3|5-----------5\-|
E|---------------|---------------|---------------|---------------|
 1 + 2 + 3 + 4 + 1 + 2 + 3 + 4 + 1 + 2 + 3 + 4 + 1 + 2 + 3 + 4 +


♫ Chorus:

G|---------------|---------------|---------------|---------------|
D|---------------|---------------|---------------|---------------|
A|6-6---6-6---6--|------------10-|8-8---8-8---8--|------------8--|
E|--------------6|8-8---8-8------|---------------|6-6---6-6-----6|
 1 + 2 + 3 + 4 + 1 + 2 + 3 + 4 + 1 + 2 + 3 + 4 + 1 + 2 + 3 + 4

G|---------------|---------------|---------------|---------------|
D|---------------|---------------|---------------|------------8--|
A|6-6---6-6---6--|------------10-|8-8---8-8---8--|---------------|
E|--------------6|8-8---8-8------|---------------|6-6---6-6-----6| x3
 1 + 2 + 3 + 4 + 1 + 2 + 3 + 4 + 1 + 2 + 3 + 4 + 1 + 2 + 3 + 4

♫ Verse 2:

no bass

♫ Chorus:

G|---------------|---------------|---------------|---------------|
D|---------------|---------------|---------------|---------------|
A|6-6---6-6---6--|------------10-|8-8---8-8---8--|------------8--|
E|--------------6|8-8---8-8------|---------------|6-6---6-6-----6|
 1 + 2 + 3 + 4 + 1 + 2 + 3 + 4 + 1 + 2 + 3 + 4 + 1 + 2 + 3 + 4

G|---------------|---------------|---------------|---------------|
D|---------------|---------------|---------------|------------8--|
A|6-6---6-6---6--|------------10-|8-8---8-8---8--|---------------|
E|--------------6|8-8---8-8------|---------------|6-6---6-6-----6| x2
 1 + 2 + 3 + 4 + 1 + 2 + 3 + 4 + 1 + 2 + 3 + 4 + 1 + 2 + 3 + 4

Pre♫ Chorus:

G|---------------|---------------|---------------|---------------|
D|---------------|---------------|---------------|---------------|
A|6-------6-6----|4-------4-4----|3-------3-3---3|5---5---5-5-5--|
E|---------------|---------------|---------------|--------------6|
 1 + 2 + 3 + 4 + 1 + 2 + 3 + 4 + 1 + 2 + 3 + 4 + 1 + 2 + 3 + 4 +


G|---------------|---------------|---------------|---------------|
D|---------------|---------------|---------------|---------------|
A|6---6---6-6----|4---4---4-4---4|3---3---3-3---3|5--------------|
E|---------------|---------------|---------------|---------------|
 1 + 2 + 3 + 4 + 1 + 2 + 3 + 4 + 1 + 2 + 3 + 4 + 1 + 2 + 3 + 4 +

♫ Outro:

G|---------------|---------------|---------------|---------------|
D|---------------|---------------|---------------|---------------|
A|6-6---6-6---6--|------------10-|8-8---8-8---8--|------------8--|
E|--------------6|8-8---8-8------|---------------|6-6---6-6-----6|
 1 + 2 + 3 + 4 + 1 + 2 + 3 + 4 + 1 + 2 + 3 + 4 + 1 + 2 + 3 + 4

G|---------------|---------------|---------------|---------------|
D|---------------|---------------|---------------|------------8--|
A|6-6---6-6---6--|------------10-|8-8---8-8---8--|---------------|
E|--------------6|8-8---8-8------|---------------|6-6---6-6-----6| x3
 1 + 2 + 3 + 4 + 1 + 2 + 3 + 4 + 1 + 2 + 3 + 4 + 1 + 2 + 3 + 4

************************************

| \  Slide down

************************************

Almost there ...

Sign in to get your own page with links to favourite songs and more. You are just one click away...

Login with Facebook Login with Google