Log in

One click and you are in

Login with Facebook Login with Google

Why sign up and log in

Guitar Tabs Explorer
Boy Pablo bass tabs for Leave me alone

Bass tabs with lyrics

  • Difficulty: Beginner
Tuning: Standard (E A D G)

🎸 Verse 1:

What do you mean?
You can't possibly be meaning the words that come out of your mouth
G|----|----------------|----------6---6|-----------------|----------------|
D|----|---------------8|--8---8-8---8--|6---6-6/8--------|----------------|
A|--4/|9-------9-11-9--|---------------|-----------11-9-8|--8---8---------|
E|----|----------------|---------------|-----------------|--------11-9-6-4|
    1 & 2 & 3 & 4 & 1 & 2 & 3 & 4 & 1 & 2 & 3 & 4 & 1 & 2 & 3 & 4 &

You wanna go home, but I just wanna have fun
You say that you're tired and want me to calm down
G|----------------|----------6---6|------------------|-----------------|
D|---------------8|--8---8-8---8--|6---6-6/8---------|--11--11---11-9-8|
A|9-------9-11-9--|---------------|-----------11-----|-----------------|
E|----------------|---------------|--------------11-9|-----------------|
 1 & 2 & 3 & 4 & 1 & 2 & 3 & 4 & 1 & 2 & 3  & 4 & 1 & 2 & 3 & 4 &

I was shy at first, but they welcomed me
There's way too many reasons to stay here
G|----------------|----------6---6|-----------------|----------------|
D|---------------8|--8---8-8---8--|6---6-6/8--------|----------------|
A|9-------9-11-9--|---------------|-----------11-9-8|--8---8---------|
E|----------------|---------------|-----------------|--------11-9-6-4|
 1 & 2 & 3 & 4 & 1 & 2 & 3 & 4 & 1 & 2 & 3 & 4 & 1 & 2 & 3 & 4 &

Just 'cause you want to, I don't think that it's fair
I'm putting my foot down, I'm staying here
G|----------------|----------6---6|------------------|--6---6-8-6----|
D|---------------8|--8---8-8---8--|6---6-6/8---------|------------9-8|
A|9-------9-11-9--|---------------|-----------11-----|---------------|
E|----------------|---------------|--------------11-9|---------------|
 1 & 2 & 3 & 4 & 1 & 2 & 3 & 4 & 1 & 2 & 3  & 4 & 1 & 2 & 3 & 4 &

🎸 Chorus:

I don't wanna go home, I'm fine right here, leave me alone
'Cause I just wanna dance and be in the zone, eat some candy
Just leave me alone, 'cause I just wanna
G|---------------|/11---8---------|---------------|--6--/8---11-8--|
D|----9----------|---------11-8-11|----9---8-7-6--|--------------11|
A|--------6-7-8-9|----------------|--------------9|----------------|
E|7--------------|----------------|7--------------|----------------| x2
 1 & 2 & 3 & 4 & 1 & 2 & 3 & 4 & 1 & 2 & 3 & 4 & 1 & 2 & 3 & 4 &

🎸 Verse 2:

Are you leaving now? Are you serious?
The truth is that I don't wanna stay without you
G|----------------|----------6---6|------------------|----------------------|
D|---------------8|--8---8-8---8--|6---6-6/8---------|--11--11-11/13-11-----|
A|9-------9-11-9--|---------------|-----------11-----|-----------------13-11|
E|----------------|---------------|--------------11-9|----------------------|
 1 & 2 & 3 & 4 & 1 & 2 & 3 & 4 & 1 & 2 & 3  & 4 & 1 & 2  &  3 & 4 &

And if we go, we'll miss it all
I'm sleepy too, I promise this will be worth it
G|----------------|----------6---6|-----------------|----------------|
D|---------------8|--8---8-8---8--|6---6-6/8--------|----------------|
A|9-------9-11-9--|---------------|-----------11-9-8|--8---8---------|
E|----------------|---------------|-----------------|--------11-9-6-4|
 1 & 2 & 3 & 4 & 1 & 2 & 3 & 4 & 1 & 2 & 3 & 4 & 1 & 2 & 3 & 4 &

🎸 Bridge:

(It's getting late) But I'm not nearly done
(I miss my bed) Let's hang out, come on
G|---------------|---------------|---------------|---------------|
D|---------------|---------------|---------------|---------------|
A|---------------|---------------|---------------|------6--------|
E|7---7---7-9-7-6|--6---6---6---6|7---7---7-9-7-6|--6-------4-4-6|
 1 & 2 & 3 & 4 & 1 & 2 & 3 & 4 & 1 & 2 & 3 & 4 & 1 & 2 & 3 & 4 &

(Are you really sure that you don't wanna come with us)
G|---------------|---------------|---------------|-11-11-------------|
D|---------------|---------------|6-6-6-6-6-6-6-6|-------------------|
A|---------------|---------------|---------------|---------13~--11-11|
E|7---7---7-9-7-6|--6---6---6---6|---------------|-------------------|
 1 & 2 & 3 & 4 & 1 & 2 & 3 & 4 & 1 & 2 & 3 & 4 & 1 & 2 & 3 & 4 &

🎸 Chorus:

I don't wanna go home, I'm fine right here, leave me alone
'Cause I just wanna dance and be in the zone, eat some candy
Just leave me alone, yeah I just wanna
G|---------------|/11---8---------|---------------|--6--/8---11-8--|
D|----9----------|---------11-8-11|----9---8-7-6--|--------------11|
A|--------6-7-8-9|----------------|--------------9|----------------|
E|7--------------|----------------|7--------------|----------------| x2
 1 & 2 & 3 & 4 & 1 & 2 & 3 & 4 & 1 & 2 & 3 & 4 & 1 & 2 & 3 & 4 &

Break:

G|---------------|---------------|---------------|---------------|
D|----9----------|---------------|----9----------|---------------|
A|--------------9|--9---9---9---9|--------------9|--9---9-8-9-8-9|
E|7-------7-7----|---------------|7-------7-7----|---------------|
 1 & 2 & 3 & 4 & 1 & 2 & 3 & 4 & 1 & 2 & 3 & 4 & 1 & 2 & 3 & 4 &

G|---------------|---------------|---------------|---------------|
D|----9----------|---------------|----9----------|---------------|
A|--------------9|--9---9---9---9|--------------9|--8------------|
E|7-------7-7----|---------------|7-------7-7----|-----11---9-6-9|
 1 & 2 & 3 & 4 & 1 & 2 & 3 & 4 & 1 & 2 & 3 & 4 & 1 & 2 & 3 & 4 &

Guitar 🎸 Solo:

G|---------------|/11---8---------|---------------|-----/8---11-8--|
D|----9----------|---------11-8-11|----9---8-7----|-11-----------11|
A|--------6-7-8-9|----------------|-----------11-9|----------------|
E|7--------------|----------------|7--------------|----------------|
 1 & 2 & 3 & 4 & 1 & 2 & 3 & 4 & 1 & 2 & 3 & 4 & 1 & 2 & 3 & 4 &

G|---------------|/11---8---------|---------------|---------------|
D|----9----------|---------11-8-11|----9---8-7-6--|--5---6---7---8|
A|--------6-7-8-9|----------------|--------------9|---------------|
E|7--------------|----------------|7--------------|---------------|
 1 & 2 & 3 & 4 & 1 & 2 & 3 & 4 & 1 & 2 & 3 & 4 & 1 & 2 & 3 & 4 &

G|---------------|/11---8---------|---------------|-----/8--11-8---|
D|----9----------|---------11-8-11|----9---8-7----|-11-----------11|
A|--------6-7-8-9|----------------|-----------11-9|----------------|
E|7--------------|----------------|7--------------|----------------| x2
 1 & 2 & 3 & 4 & 1 & 2 & 3 & 4 & 1 & 2 & 3 & 4 & 1 & 2 & 3 & 4 &

🎸 Chorus:

I don't wanna go home, I'm fine right here, leave me alone
'Cause I just wanna dance and be in the zone, eat some candy
Just leave me alone, yeah I just wanna
G|---------------|/11---8---------|---------------|--6--/8---11-8--|
D|----9----------|---------11-8-11|----9---8-7-6--|--------------11|
A|--------6-7-8-9|----------------|--------------9|----------------|
E|7--------------|----------------|7--------------|----------------| x2
 1 & 2 & 3 & 4 & 1 & 2 & 3 & 4 & 1 & 2 & 3 & 4 & 1 & 2 & 3 & 4 &


************************************

/ -  Slide up

************************************

Almost there ...

Sign in to get your own page with links to favourite songs and more. You are just one click away...

Login with Facebook Login with Google