Log in

One click and you are in

Login with Facebook Login with Google

Why sign up and log in

Guitar Tabs Explorer
David Bowie bass tabs for Heroes

Bass tabs

you made..
-------------|-------------|-----------------|-------------|G
-------------|-------------|----------5-0----|-------------|D
-5-5-----5-5-|-555-----5-5-|-----------------|---2-3-4-0---|A Fig 1
-----7-5-----|-----7-5-----|-7-5--3-3-----3-3|-3-----------|E
                       I drink..
-------------|-------------|-----------------|-------------|G
-------------|-------------|----------5-0----|-------------|D
-5-5-----5-5-|-555-----5-5-|-----------------|---2-3-4-0---|A Fig 1
-----7-5-----|-----7-5-----|-7-5--3-3-----3-3|-3-----------|E


  For we’re lovers...
-------------|-------------|-----------------|-------------|G
-------------|-------------|----------5-0----|-------------|D
-5-5-----5-5-|-555-----5-5-|-----------------|---2-3-4-0---|A Fig 1
-----7-5-----|-----7-5-----|-7-5--3-3-----3-3|-3-----------|E


  yes we’re lovers...
-------------|-------------|-----------------|-------------|G
-------------|-------------|----------5-0----|-----5-0-----|D
-5-5-----5-5-|-555-----5-5-|-----------------|-------------|A Fig 2
-----7-5-----|-----7-5-----|-7-5--3-3-----3-3|-3-3----3-3--|E

  For nothing...
-------------|-------------|-----------------|-------------|G
-------------|-------------|-----------------|-------------|D
--3-3-3-3----|--3-3-3-3----|-5-5-----5-5-----|-555-----5-5-|A Fig 3
-------------|-------------|-----7-5---------|-----7-5-----|E


  we can beat them...
-------------|-------------|-----------------|-------------|G
-------------|-------------|-----------------|-------------|D
-------------|--33333333---|-5-5-----5-5-----|-555-----5-5-|A Fig 4
--55555555---|-------------|-----7-5---------|-----7-5-----|E

                       just for one....
-------------|-------------|-----------------|-------------|G
-------------|-------------|-----------------|-------------|D
-------------|--00223344 --|-5-5-----5-5-----|-555-----5-5-|A Fig 5
--00223344---|-------------|-----7-5---------|-----7-5-----|E


guitar solo
Fig 1
Fig 1


I, well I wish....
Fig 1
Like dolphins...
Fig 2
Though nothing...
Fig 3
We can beat them...
Fig 4
We can be heroes...
Fig 5


guitar solo
Fig 1
Fig 1


I, I will...
Fig 1
and you, you will...
Fig 2
for nothing...
Fig 3
we can beat...
Fig 4
we can be heroes...
Fig 5


I, I can remember...
Fig 1
Standing, standing...
Fig 1
And the guards...
Fig 1
And we kissed...
Fig 2
And the Seine...
Fig 3
we can beat them...
Fig 4
Yeah we can be heroes...
Fig 5


(we can be heroes) what I...
Fig 1
we can be...
Fig 1
we can be...
Fig 1
we can be...
Fig 2
when nothing...
Fig 3
maybe we like it...
Fig 4
we can be...
Fig 5


outro
(repeat Fig 1)
we can be...

Heroes bass tab

David Bowie bass tabs for Heroes These tablatures are taken from the New York City concert DVD with David Bowie. They should be close to the original song. The bass-grooves on this song is a killer job done by Ms. Dorsey. Standard tuning.

Other versions of Heroes

Heroes (Ver. 2)Bass tabs

Almost there ...

Sign in to get your own page with links to favourite songs and more. You are just one click away...

Login with Facebook Login with Google