Log in

One click and you are in

Login with Facebook Login with Google

Why sign up and log in

Guitar Tabs Explorer
David Bowie bass tabs for Heroes (Ver. 2)

Bass tabs

Tuning: Standard (E A D G)

Funky cover of Heroes by David Bowie
Play it with a funky groove/slightly swung
Intro:
   1 + 2 + 3 + 4 +   1 + 2 + 3 + 4 +   1 + 2 + 3 + 4 +   1 + 2 + 3 + 4 +
G|---------------7-|---------------7-|-----------------|-----------------|
D|-----4-4h5-5/7---|-----4-4h5-5/7---|---------------5-|---------------5-|
A|-5-5-------------|-5-5-------------|-----2-2h3-3/5---|-----2-2h3-3/5---|
E|-----------------|-----------------|-3-3-------------|-3-3-------------|

   1 + 2 + 3 + 4 +   1 + 2 + 3 + 4 +   1 + 2 + 3 + 4 +   1 + 2 + 3 + 4 +
G|---------------7-|---------------7-|-----------------|-----------------|
D|-----4-4h5-5/7---|-----4-4h5-5/7---|---------------5-|---------------5-|
A|-5-5-------------|-5-5-------------|-----2-2h3-3/5---|-----2-2h3-3/5---|
E|-----------------|-----------------|-3-3-------------|-3-3-------------|


Verse:
   1 + 2 + 3 + 4 +   1 + 2 + 3 + 4 +   1 + 2 + 3 + 4 +   1 + 2 + 3 + 4 +
G|---------------7-|---------------7-|-----------------|-----------------|
D|-----4-4h5-5/7---|-----4-4h5-5/7---|---------------5-|---------------5-|
A|-5-5-------------|-5-5-------------|-----2-2h3-3/5---|-----2-2h3-3/5---|
E|-----------------|-----------------|-3-3-------------|-3-3-------------|

   1 + 2 + 3 + 4 +   1 + 2 + 3 + 4 +   1 + 2 + 3 + 4 +   1 + 2 + 3 + 4 +
G|---------------7-|---------------7-|-----------------|-----------------|
D|-----4-4h5-5/7---|-----4-4h5-5/7---|---------------5-|---------------5-|
A|-5-5-------------|-5-5-------------|-----2-2h3-3/5---|-----2-2h3-3/5---|
E|-----------------|-----------------|-3-3-------------|-3-3-------------|

   1 + 2 + 3 + 4 +   1 + 2 + 3 + 4 +   1 + 2 + 3 + 4 +   1 + 2 + 3 + 4 +
G|---------------5-|---------------5-|-----------------|-----------------|
D|-----------------|-----------------|-----------------|-----------------|
A|-3-3-3-3-3-3-3---|-3-3-3-3-3-3-3---|-5-5-5-5-5-5-5-5-|-5-5-5-5-5-5-5-5-|
E|-----------------|-----------------|-----------------|-----------------|

   1 + 2 + 3 + 4 +   1 + 2 + 3 + 4 +   1 + 2 + 3 + 4 +   1 + 2 + 3 + 4 +
G|-----------------|-----------------|---------------7-|---------------7-|
D|-----------------|-----------------|-----4-4h5-5/7---|-----4-4h5-5/7---|
A|-----------------|-7-----7-------7-|-5-5-------------|-5-5-------------|
E|-5-----5-------5-|-----------------|-----------------|-----------------|

   1 + 2 + 3 + 4 +   1 + 2 + 3 + 4 +   1 + 2 + 3 + 4 +   1 + 2 + 3 + 4 +
G|---------------5-|---------------5-|-----------------|---------------7-|
D|-----------------|-----------------|-----------------|-----4-4h5-5/7---|
A|-3-3-3-3-3-3-3---|-3-3-3-3-3-3-3---|-----------------|-5-5-------------|
E|-----------------|-----------------|-3-3-3-3-3-3-3-3-|-----------------|

Instrumental:
   1 + 2 + 3 + 4 +   1 + 2 + 3 + 4 +   1 + 2 + 3 + 4 +   1 + 2 + 3 + 4 +
G|---------------7-|---------------7-|-----------------|-----------------|
D|-----4-4h5-5/7---|-----4-4h5-5/7---|---------------5-|---------------5-|
A|-5-5-------------|-5-5-------------|-----2-2h3-3/5---|-----2-2h3-3/5---|
E|-----------------|-----------------|-3-3-------------|-3-3-------------|

   1 + 2 + 3 + 4 +   1 + 2 + 3 + 4 +   1 + 2 + 3 + 4 +   1 + 2 + 3 + 4 +
G|---------------7-|---------------7-|-----------------|-----------------|
D|-----4-4h5-5/7---|-----4-4h5-5/7---|---------------5-|---------------5-|
A|-5-5-------------|-5-5-------------|-----2-2h3-3/5---|-----2-2h3-3/5---|
E|-----------------|-----------------|-3-3-------------|-3-3-------------|


Verse:
   1 + 2 + 3 + 4 +   1 + 2 + 3 + 4 +   1 + 2 + 3 + 4 +   1 + 2 + 3 + 4 +
G|---------------7-|---------------7-|-----------------|-----------------|
D|-----4-4h5-5/7---|-----4-4h5-5/7---|---------------5-|---------------5-|
A|-5-5-------------|-5-5-------------|-----2-2h3-3/5---|-----2-2h3-3/5---|
E|-----------------|-----------------|-3-3-------------|-3-3-------------|

   1 + 2 + 3 + 4 +   1 + 2 + 3 + 4 +   1 + 2 + 3 + 4 +   1 + 2 + 3 + 4 +
G|---------------7-|---------------7-|-----------------|-----------------|
D|-----4-4h5-5/7---|-----4-4h5-5/7---|---------------5-|---------------5-|
A|-5-5-------------|-5-5-------------|-----2-2h3-3/5---|-----2-2h3-3/5---|
E|-----------------|-----------------|-3-3-------------|-3-3-------------|

   1 + 2 + 3 + 4 +   1 + 2 + 3 + 4 +   1 + 2 + 3 + 4 +   1 + 2 + 3 + 4 +
G|---------------5-|---------------5-|-----------------|-----------------|
D|-----------------|-----------------|-----------------|-----------------|
A|-3-3-3-3-3-3-3---|-3-3-3-3-3-3-3---|-5-5-5-5-5-5-5-5-|-5-5-5-5-5-5-5-5-|
E|-----------------|-----------------|-----------------|-----------------|

   1 + 2 + 3 + 4 +   1 + 2 + 3 + 4 +   1 + 2 + 3 + 4 +   1 + 2 + 3 + 4 +
G|-----------------|-----------------|---------------7-|---------------7-|
D|-----------------|-----------------|-----4-4h5-5/7---|-----4-4h5-5/7---|
A|-----------------|-7-----7-------7-|-5-5-------------|-5-5-------------|
E|-5-----5-------5-|-----------------|-----------------|-----------------|

   1 + 2 + 3 + 4 +   1 + 2 + 3 + 4 +   1 + 2 + 3 + 4 +   1 + 2 + 3 + 4 +
G|---------------5-|---------------5-|-----------------|---------------7-|
D|-----------------|-----------------|-----------------|-----4-4h5-5/7---|
A|-3-3-3-3-3-3-3---|-3-3-3-3-3-3-3---|-----------------|-5-5-------------|
E|-----------------|-----------------|-3-3-3-3-3-3-3-3-|-----------------|


Verse:
   1 + 2 + 3 + 4 +   1 + 2 + 3 + 4 +   1 + 2 + 3 + 4 +   1 + 2 + 3 + 4 +
G|---------------7-|---------------7-|-----------------|-----------------|
D|-----4-4h5-5/7---|-----4-4h5-5/7---|---------------5-|---------------5-|
A|-5-5-------------|-5-5-------------|-----2-2h3-3/5---|-----2-2h3-3/5---|
E|-----------------|-----------------|-3-3-------------|-3-3-------------|

   1 + 2 + 3 + 4 +   1 + 2 + 3 + 4 +   1 + 2 + 3 + 4 +   1 + 2 + 3 + 4 +
G|---------------7-|---------------7-|-----------------|-----------------|
D|-----4-4h5-5/7---|-----4-4h5-5/7---|---------------5-|---------------5-|
A|-5-5-------------|-5-5-------------|-----2-2h3-3/5---|-----2-2h3-3/5---|
E|-----------------|-----------------|-3-3-------------|-3-3-------------|

   1 + 2 + 3 + 4 +   1 + 2 + 3 + 4 +   1 + 2 + 3 + 4 +   1 + 2 + 3 + 4 +
G|---------------7-|---------------7-|-----------------|-----------------|
D|-----4-4h5-5/7---|-----4-4h5-5/7---|---------------5-|---------------5-|
A|-5-5-------------|-5-5-------------|-----2-2h3-3/5---|-----2-2h3-3/5---|
E|-----------------|-----------------|-3-3-------------|-3-3-------------|

   1 + 2 + 3 + 4 +   1 + 2 + 3 + 4 +   1 + 2 + 3 + 4 +   1 + 2 + 3 + 4 +
G|---------------7-|---------------7-|-----------------|-----------------|
D|-----4-4h5-5/7---|-----4-4h5-5/7---|---------------5-|---------------5-|
A|-5-5-------------|-5-5-------------|-----2-2h3-3/5---|-----2-2h3-3/5---|
E|-----------------|-----------------|-3-3-------------|-3-3-------------|


Bridge:
   1 + 2 + 3 + 4 +   1 + 2 + 3 + 4 +   1 + 2 + 3 + 4 +   1 + 2 + 3 + 4 +
G|---------------5-|---------------5-|-----------------|-----------------|
D|-----------------|-----------------|-----------------|-----------------|
A|-3-3-3-3-3-3-3---|-3-3-3-3-3-3-3---|-5-5-5-5-5-5-5-5-|-5-5-5-5-5-5-5-5-|
E|-----------------|-----------------|-----------------|-----------------|

   1 + 2 + 3 + 4 +   1 + 2 + 3 + 4 +   1 + 2 + 3 + 4 +   1 + 2 + 3 + 4 +
G|-----------------|-----------------|---------------7-|---------------7-|
D|-----------------|-----------------|-----4-4h5-5/7---|-----4-4h5-5/7---|
A|-----------------|-7-----7-------7-|-5-5-------------|-5-5-------------|
E|-5-----5-------5-|-----------------|-----------------|-----------------|

   1 + 2 + 3 + 4 +   1 + 2 + 3 + 4 +   1 + 2 + 3 + 4 +   1 + 2 + 3 + 4 +
G|---------------5-|---------------5-|-----------------|---------------7-|
D|-----------------|-----------------|-----------------|-----4-4h5-5/7---|
A|-3-3-3-3-3-3-3---|-3-3-3-3-3-3-3---|-----------------|-5-5-------------|
E|-----------------|-----------------|-3-3-3-3-3-3-3-3-|-----------------|


Instrumental:
   1 + 2 + 3 + 4 +   1 + 2 + 3 + 4 +   1 + 2 + 3 + 4 +   1 + 2 + 3 + 4 +
G|---------------7-|---------------7-|-----------------|-----------------|
D|-----4-4h5-5/7---|-----4-4h5-5/7---|---------------5-|---------------5-|
A|-5-5-------------|-5-5-------------|-----2-2h3-3/5---|-----2-2h3-3/5---|
E|-----------------|-----------------|-3-3-------------|-3-3-------------|

   1 + 2 + 3 + 4 +   1 + 2 + 3 + 4 +   1 + 2 + 3 + 4 +   1 + 2 + 3 + 4 +
G|---------------7-|---------------7-|-----------------|-----------------|
D|-----4-4h5-5/7---|-----4-4h5-5/7---|---------------5-|---------------5-|
A|-5-5-------------|-5-5-------------|-----2-2h3-3/5---|-----2-2h3-3/5---|
E|-----------------|-----------------|-3-3-------------|-3-3-------------|


Outro:
   1 + 2 + 3 + 4 +   1 + 2 + 3 + 4 +   1 + 2 + 3 + 4 +   1 + 2 + 3 + 4 +
G|---------------7-|-----------------|---------------7-|-----------------|
D|-----4-4h5-5/7---|---------------5-|-----4-4h5-5/7---|---------------5-|
A|-5-5-------------|-----2-2h3-3/5---|-5-5-------------|-----2-2h3-3/5---|
E|-----------------|-3-3-------------|-----------------|-3-3-------------|

   1 + 2 + 3 + 4 +   1 + 2 + 3 + 4 +   1 + 2 + 3 + 4 +   1 + 2 + 3 + 4 +
G|---------------7-|-----------------|---------------7-|-----------------|
D|-----4-4h5-5/7---|---------------5-|-----4-4h5-5/7---|---------------5-|
A|-5-5-------------|-----2-2h3-3/5---|-5-5-------------|-----2-2h3-3/5---|
E|-----------------|-3-3-------------|-----------------|-3-3-------------|

****************

|h  hammer on
|/  slide

****************

Other versions of Heroes

HeroesBass tabs

Almost there ...

Sign in to get your own page with links to favourite songs and more. You are just one click away...

Login with Facebook Login with Google