Log in

One click and you are in

Login with Facebook Login with Google

Why sign up and log in

Guitar Tabs Explorer
Andreas Bourani chords for Glück acoustic

Guitar chords with lyrics

Verse 1:
          A chord diagramBB         A chord diagramF#F#           A chord diagramD MajorD         A chord diagramA augmentedA
E-----------------------------------------------------------|
H--------------------------------3---------2----------------|
G---------4----------3---------2---------2------------------|
D-------4---------4----------0------------------------------|
A----2---------------------------------0--------------------|
E---------------2-------------------------------------------|

A chord diagramBB           A chord diagramF#F#        A chord diagramD MajorD        A chord diagramA augmentedA
Ich dachte, da wo es glänzt, da
A chord diagramBB           A chord diagramF#F#        A chord diagramD MajorD        A chord diagramA augmentedA
Muss es irgendwo sein
A chord diagramB minorBm       A chord diagramF#F#            A chord diagramD MajorD       A chord diagramA augmentedA
Doch es liegt nicht im Hochglanz
A chord diagramB minorBm      A chord diagramF#F#              A chord diagramD MajorD      A chord diagramA augmentedA
Und es meidet den Schein.
A chord diagramBB       A chord diagramF#F#     A chord diagramD MajorD      A chord diagramA augmentedA
Ich suchte in allem
A chord diagramBB        A chord diagramF#F#             A chord diagramD MajorD      A chord diagramA augmentedA
Was ich nicht haben kann
A chord diagramB minorBm        A chord diagramF#F#            A chord diagramD MajorD      A chord diagramA augmentedA
Doch ich seh was mich blendet
A chord diagramB minorBm       A chord diagramF#F#             A chord diagramD MajorD      A chord diagramA augmentedA
Das leuchtet nicht lang


Chorus:
strumming:
 A chord diagramE MajorE
Es ist schon da
 A chord diagramF#m7F#m7
Es ist schon hier
 A chord diagramBm7Bm7         A chord diagramA augmentedA              A chord diagramD MajorD
Es lag die ganze Zeit vor mir
             A chord diagramBm7Bm7
Ich heb es hoch
                A chord diagramF#m7F#m7
Es ist ganz leicht
              A chord diagramE MajorE
Und leuchtet für die Ewigkeit


Verse 2:
          A chord diagramBB         A chord diagramF#F#           A chord diagramD MajorD         A chord diagramA augmentedA
E-----------------------------------------------------------|
H--------------------------------3---------2----------------|
G---------4----------3---------2---------2------------------|
D-------4---------4----------0------------------------------|
A----2---------------------------------0--------------------|
E---------------2-------------------------------------------|

A chord diagramBB        A chord diagramF#F#        A chord diagramD MajorD      A chord diagramA augmentedA
Ich will, dass es da bleibt
A chord diagramBB        A chord diagramF#F#                A chord diagramD MajorD        A chord diagramA augmentedA
Doch ich halt es nicht fest
A chord diagramBB      A chord diagramF#F#           A chord diagramD MajorD      A chord diagramA augmentedA
Ich werd's mit dir teilen
A chord diagramBB             A chord diagramF#F#    A chord diagramD MajorD        A chord diagramA augmentedA
Weil es dann wächst


Chorus:
strumming:
 A chord diagramE MajorE
Es ist schon da
 A chord diagramF#m7F#m7
Es ist schon hier
  A chord diagramBm7Bm7        A chord diagramA augmentedA              A chord diagramD MajorD
Es lag die ganze Zeit vor mir
              A chord diagramBm7Bm7
Ich heb es hoch
                 A chord diagramF#m7F#m7
Es ist ganz leicht
               A chord diagramE MajorE
Und leuchtet für die Ewigkeit


Interlude:
          A chord diagramD MajorD         A chord diagramA augmentedA           A chord diagramBm7Bm7         A chord diagramF# minorF#m         A chord diagramA augmentedA
E---------------------------------------------------------------------|
H---------------------------------------------------------------------|
G-------2-4-2-------2-4----------2-4-2------2-4---------2-4-----------|
D-----2-----------2-------------4---------------------2---------------|
A----0-----------0-------------2--------------------------------------|
E------------------------------------------2--------------------------|



Bridge:
          A chord diagramD MajorD         A chord diagramA augmentedA           A chord diagramBm7Bm7         A chord diagramF# minorF#m         A chord diagramA augmentedA
E---------------------------------------------------------------------|
H---------------------------------------------------------------------|
G-------2-4-2-------2-4----------2-4-2------2-4---------2-4-----------|
D-----2-----------2-------------4---------------------2---------------|
A----0-----------0-------------2--------------------------------------|
E------------------------------------------2--------------------------|

A chord diagramD MajorD                     A chord diagramA augmentedA
Ich schweb überm Boden
A chord diagramB minorBm                           A chord diagramF# minorF#m A chord diagramE MajorE
Ich bleib für immer hier oben
A chord diagramD MajorD                    A chord diagramA augmentedA
Ich will nich mehr. Ich brauch nich mehr
A chord diagramB minorBm                       A chord diagramF# minorF#m A chord diagramE MajorE
Ich will nich mehr zurück


Chorus:
strumming:
 A chord diagramD MajorD
Es ist schon da
 A chord diagramBm7Bm7
Es ist schon hier
  A chord diagramF#m7F#m7      A chord diagramC# minorC#m     A chord diagramA augmentedA      A chord diagramD MajorD
Es lag die ganze Zeit vor mir
              A chord diagramBm7Bm7
Ich heb es hoch
                 A chord diagramF#m7F#m7
Es ist ganz leicht
              A chord diagramC# minorC#m     A chord diagramA augmentedA    A chord diagramD MajorD
Und leuchtet für die Ewigkeit


Outro:
strumming:
         A chord diagramBm7Bm7
Für die Ewigkeit
         A chord diagramF#m7F#m7          A chord diagramC# minorC#m
Für die Ewigkeit, oh oh oh
 A chord diagramD MajorD
Oh oh eh oh
 A chord diagramBm7Bm7
Eh oh eh oh
 A chord diagramF#m7F#m7    A chord diagramC# minorC#m    A chord diagramA augmentedA     A chord diagramD MajorD
Oh oh eh oh eh oh eh oh
          A chord diagramBm7Bm7
Oh oh eh oh
           A chord diagramF#m7F#m7
Eh oh eh oh
           A chord diagramC#m7C#m7
Oh oh eh oh

A chord diagramBm7Bm7 A chord diagramF#m7F#m7 A chord diagramC# minorC#m A chord diagramD MajorD
A chord diagramBm7Bm7 A chord diagramF#m7F#m7 A chord diagramC# minorC#m A chord diagramA augmentedA A chord diagramD MajorD
repeat & fade out
ⓘ Guitar chords for 'Glück Acoustic' by Andreas Bourani, a male pop artist from Augsburg, Germany. Andreas Bourani was born in 2011.

Almost there ...

Sign in to get your own page with links to favourite songs and more. You are just one click away...

Login with Facebook Login with Google