Log in

One click and you are in

Login with Facebook Login with Google

Why sign up and log in

Guitar Tabs Explorer
Stef Bos guitar tabs for Wals der verliefden i

Guitar tabs

Tuning: Standard (E A D G B E)


Intro:

e|--------------------------------------------------------------------------------|
B|-10--10-13-10--------10-13-12-----12--------------10----10-8--------8-----------|
G|--------------10--10-----------12----12-9--9-12-9------------10-12----10-9-10---|
D|--------------------------------------------------------------------------------|
A|--------------------------------------------------------------------------------|
E|--------------------------------------------------------------------------------|

e|--------------------------------------------------------------------------------|
B|--------------8--10p8h10--------------------------------------------------------|
G|-9p7s5-7-9-10-------------------------------------------------------------------|
D|--------------------------------------------------------------------------------|
A|--------------------------------------------------------------------------------|
E|--------------------------------------------------------------------------------|

e|--------------------------------------------------------------------------------|
B|-10--10-13-10--------10-13-12-----12------------12-10----10-8--------8----------|
G|--------------10--10-----------12----12-9--9-12--------------10-12----10-9-10---|
D|--------------------------------------------------------------------------------|
A|--------------------------------------------------------------------------------|
E|--------------------------------------------------------------------------------|

e|--------------------------------------------------------------------------------|
B|--------------8--8-10-----------------------------------------------------------|
G|-9p7s5-7-9-10-------------------------------------------------------------------|
D|--------------------------------------------------------------------------------|
A|--------------------------------------------------------------------------------|
E|--------------------------------------------------------------------------------|

Accordion kicks in

e|--------------------------------------------------------------------------------|
B|-10--10-13-10----------10-13-12-----12------------12-10----10-8-----------------|
G|--------------10--9-10-----------12----12-9--9-12--------------10-12------------|
D|--------------------------------------------------------------------------------|
A|--------------------------------------------------------------------------------|
E|--------------------------------------------------------------------------------|

e|--------------------------------------------------------------------------------|
B|-8---------------------------------8--17p15s13s12s10----------------------------|
G|--10-9-10-9-10-7--9p7s5-7-9-10--------------------------------------------------|
D|--------------------------------------------------------------------------------|
A|--------------------------------------------------------------------------------|
E|--------------------------------------------------------------------------------|

Piano kicks in

e|--------------------------------------------------------------------------------|
B|-10--10-13-10----------10-13-12--12-13s15-13-12-8-------------10-12-13----------|
G|--------------10--9-10-----------------------------9s8s9-12-9----------10-------|
D|--------------------------------------------------------------------------------|
A|--------------------------------------------------------------------------------|
E|--------------------------------------------------------------------------------|

e|--------------------------------------------------------------------------------|
B|-12-13-15-13-15-13---------------------------------------------8--8-10----------|
G|-------------------12--10s12-10-9-10s12-10-9-10---9p7s5-7-9-10------------------|
D|--------------------------------------------------------------------------------|
A|--------------------------------------------------------------------------------|
E|--------------------------------------------------------------------------------|


************************************

| h  Hammer-on
| p  Pull-off


************************************

Almost there ...

Sign in to get your own page with links to favourite songs and more. You are just one click away...

Login with Facebook Login with Google