Log in

One click and you are in

Login with Facebook Login with Google

Why sign up and log in

Guitar Tabs Explorer
BØRNS bass tabs for Holy ghost

Bass tabs

  • Difficulty: Beginner
Tuning: Standard (E A D G)

♫ Intro: 0:12

G|--------------------------------------------------------------------------------------|
D|--------------------------------------------------------------------------------------|
A|-9-7-9----9-9-9-9-9-7-9--9h11\--7---7----7-7-7-7-7---7---11-9-7-----------------------|
E|-------2--------------------------9---0------------9---0--------9-7-------------------|
Verse 1: 0:22

G|--------------------------------------------------------------------------------------|
D|--------------------------------------------------------------------------------------|
A|----9-7-9----9-9-9-9-9-7-9--9h11\--7-7-7-7-7---7---7-7-7-7-7---7------7---------------|
E|-2/-------2/---------------------------------9---0-----------9---0--9-----------------|

G|--------------------------------------------------------------------------------------|
D|--------------------------------------------------------------------------------------|
A|-9-9-9-9-9-7-9----9-9-9-9-9-7-9--9h11\--7-7-7-7-7---7-----7-7-7-7-7---7---11-9-7------|
E|---------------2/---------------------------------9---0-------------9---0--------9-7--|

G|--------------------------------------------------------------------------------------|
D|--------------------------------------------------------------------------------------|
A|-9-9-9-9-9-7-9---7--9-9-9-9-9-7-9--9h11\--7-7-7-7-7---7-----7-7-7-7-7---7---11-9-7----|
E|---------------9------------------------------------9---7-9-----------9---0--------9-7|

G|--------------------------------------------------------------------------------------|
D|--------------------------------------------------------------------------------------|
A|-9-9-9-9-9-7-9---7--9-9-9-9-9-7-9--9h11\--7-7-7-7-7---7-----7-7-7-7-7----7------------|
E|---------------9------------------------------------9---7-9------------9--------------|

G|-------------------------------9--------------------------------------------------------|
D|--------------------------9-11----------------------------------------------------------|
A|-9/11-9-7-9-7------7-9-11---------------------------------------------------------------|
E|--------------9-7-----------------------------------------------------------------------|

Pre-Chorus: 1:06

G|--------------------------------------------------------------------------------------|
D|--------------------------------------------------------------------------------------|
A|------7------9------9/11-9-7-9-7----------7------9-------9/11-9-7-9-7-----------------|
E|-5-5----7-7----9-9---------------9---5-5----7-7----9-9\---------------9---------------|

G|------------------------------------------------------------------------9-------------|
D|-------------------------------------------------------------------9-11---------------|
A|------7------9------9/11-9-7-9-7----------7------7----------7-9-11--------------------|
E|-5-5----7-7----9-9---------------9---5-5----5-5----5-5--5\----------------------------|


♫ Chorus: 1:28

G|--------------------------------------------------------------------------------------|
D|--------------------------------------------------------------------------------------|
A|-9-7-9-----9-9-9-9-9-7-9--9h11\--7---7----7-7-7-7-7---7---11-9-7----------------------|
E|-------2/--------------------------9---0------------9---0--------9-7------------------|

G|----------------------------------------------------------------------9---------------|
D|--------------------------------------------------------------------9---11-9----------|
A|-9-7-9---7--9-9-9-9-9-7-9--9h11\--7---7------7-7-7-7-7----7--7-9-11-------------------|
E|-------9----------------------------9---7-9-------------9-----------------------------|


♫ Verse 2: 1:51

G|--------------------------------------------------------------------------------------|
D|--------------------------------------------------------------------------------------|
A|-9-9-9-9-9-7-9---7--9-9-9-9-9-7-9--9h11\--7-7-7-7-7---7-----7-7-7-7-7---7--------7----|
E|---------------9------------------------------------9---0-------------9---0----9------|

G|--------------------------------------------------------------------------------------|
D|--------------------------------------------------------------------------------------|
A|-9-9-9-9-9-7-9-----9-9-9-9-9-7-9--9h11\--7-7-7-7-7---7----7-7-7-7-7----7---11-9-7-----|
E|---------------2/----------------------------------9---0-------------9---0--------9-7-|

G|--------------------------------------------------------------------------------------|
D|--------------------------------------------------------------------------------------|
A|-9-9-9-9-9-7-9---7--9-9-9-9-9-7-9--9h11\--7-7-7-7-7---7-----7-7-7-7-7----7------------|
E|---------------9------------------------------------9---7-9------------9--------------|

G|------------------------------9--------------------------------------------------------|
D|-------------------------9-11----------------------------------------------------------|
A|-9/11-9-7-9-7-----7-9-11---------------------------------------------------------------|
E|--------------9-7-----------------------------------------------------------------------|


♫ Pre-Chorus: 2:24

G|--------------------------------------------------------------------------------------|
D|--------------------------------------------------------------------------------------|
A|------7------9------9/11-9-7-9-7----------7------9-------9/11-9-7-9-7-----------------|
E|-5-5----7-7----9-9---------------9---5-5----7-7----9-9\---------------9---------------|

G|------------------------------------------------------------------------9-------------|
D|-------------------------------------------------------------------9-11---------------|
A|------7------9------9/11-9-7-9-7----------7------7----------7-9-11--------------------|
E|-5-5----7-7----9-9---------------9---5-5----5-5----5-5--5\----------------------------|


♫ Chorus: 2:46

G|--------------------------------------------------------------------------------------|
D|--------------------------------------------------------------------------------------|
A|-9-7-9-----9-9-9-9-9-7-9--9h11\--7---7----7-7-7-7-7---7---11-9-7----------------------|
E|-------2/--------------------------9---0------------9---0--------9-7------------------|

G|----------------------------------------------------------------------9---------------|
D|--------------------------------------------------------------------9---11-9----------|
A|-9-7-9---7--9-9-9-9-9-7-9--9h11\--7---7------7-7-7-7-7----7--7-9-11-------------------|
E|-------9----------------------------9---7-9-------------9-----------------------------|


♫ Bridge: 3:08

Bass only comes in at 3:29 to lead into the final Chorus

G|----------------9---------------------------------------------------------------------|
D|-----------9-11-----------------------------------------------------------------------|
A|---7-9-11-----------------------------------------------------------------------------|
E|--------------------------------------------------------------------------------------|


♫ Chorus: 3:30

G|--------------------------------------------------------------------------------------|
D|--------------------------------------------------------------------------------------|
A|-9-7-9----9-9-9-9-9-7-9--9h11\--7---7----7-7-7-7-7---7---11-9-7-----------------------|
E|-------2--------------------------9---0------------9---0--------9-7-------------------|

G|----------------------------------------------------------------------9---------------|
D|--------------------------------------------------------------------9---11-9----------|
A|-9-7-9---7--9-9-9-9-9-7-9--9h11\--7---7------7-7-7-7-7----7--7-9-11-------------------|
E|-------9----------------------------9---7-9-------------9-----------------------------|

G|--------------------------------------------------------------------------------------|
D|--------------------------------------------------------------------------------------|
A|-9-7-9----9-9-9-9-9-7-9--9h11\--7---7----7-7-7-7-7---7---11-9-7-----------------------|
E|-------2--------------------------9---0------------9---0--------9-7-------------------|

G|----------------------------------------------------------------------9---------------|
D|--------------------------------------------------------------------9---11-9----------|
A|-9-7-9---7--9-9-9-9-9-7-9--9h11\--7---7------7-7-7-7-7----7--7-9-11-------------------|
E|-------9----------------------------9---7-9-------------9-----------------------------|


************************************

| h  Hammer-on
| /  Slide up
| \  Slide down

************************************

Almost there ...

Sign in to get your own page with links to favourite songs and more. You are just one click away...

Login with Facebook Login with Google