Log in

One click and you are in

Login with Facebook Login with Google

Why sign up and log in

Guitar Tabs Explorer
Born Ruffians tabs for Oh man

Guitar tabs with lyrics

So i learned most of this song before Say It came out by watching the Live in Bellwoods
video in youtube, but then there was that one part where Luke messed up and i always
wondered what happened there. Then i listened to the album and figured it out, and now
after months of being able to play it myself, i realized that i should share it with the
world. So i basically just took from the person that already made most of the tab, but
then added what was missing. Thanks Element16161!

A chord diagramA augmentedA
e|--4------0-----4-----0-----4------0----------7-------5-----|
A chord diagramBB|--5------0-----5-----0-----5------0----------7-------5-----|
A chord diagramG+G|--6------1-----6-----1-----6------1----------8-------6-----| INTRO/MAIN VERSE
A chord diagramD MajorD|--6------2-----6-----2-----6------2----------9-------7-----|
A chord diagramA augmentedA|--4------2-----4-----2-----4------2----------9-------7-----|
A chord diagramE MajorE|---------0-----------0------------0----------7-------5-----|

After those intro chords, strum an A chord diagramE MajorE chord and let it ring out, then go on with the verses

e|---------------------------------|
A chord diagramBB|---------------------------------|
A chord diagramG+G|-------1-----1-------1-----1-----| x4
A chord diagramD MajorD|--1p2-----2-------1--------------|
A chord diagramA augmentedA|-------------------------2-------|
A chord diagramE MajorE|---------------------------------|


e|--4----4----|
A chord diagramBB|--2----4----|
A chord diagramG+G|--x----2----|
A chord diagramD MajorD|--2----4----|
A chord diagramA augmentedA|--0----2----|
A chord diagramE MajorE|------------|


e|---------------------------------|
A chord diagramBB|---------------------------------|
A chord diagramG+G|-------1-----1-------1-----1-----| x4
A chord diagramD MajorD|--1p2-----2-------1--------------|
A chord diagramA augmentedA|-------------------------2-------|
A chord diagramE MajorE|---------------------------------|

e|--4----4----4----0-----|
A chord diagramBB|--2----4----5----0-----|
A chord diagramG+G|--x----2----6----1-----|
A chord diagramD MajorD|--2----4----6----2-----|
A chord diagramA augmentedA|--0----2----4----2-----|
A chord diagramE MajorE|-----------------0-----|


A chord diagramE MajorE
I'm not a lonely soul

 A chord diagramE MajorE
I know, i know, i know, i know, i know, i know

A chord diagramE MajorE
I just gotta let it go

A chord diagramE MajorE
The way you roll determines all your wishes and your wants


e---------------------------------------|
B---------------------------------------|
G---------------------------------------|
D-----------------------9--9------------|      x4
A----11-11--9--9-11-11--0--0------------|
E-----0--0--0--0--0--0------------------|


e--------------------------------|
B--------------------------------|
G-----9--11--13--11--9-----------|
D--11-------------------11--9----|
A--------------------------------|
E--------------------------------|

e---------------------------------------|
B---------------------------------------|
G---------------------------------------|
D-----------------------9--9------------|      x4
A----11-11--9--9-11-11--0--0------------|
E-----0--0--0--0--0--0------------------|

e------------------------------------------------------------|
B------------------------------------------------------------|
G---------------------------------------9--9--9--9-----------|
D--11-11-11-11-11-11-11-11-11-11-11----11-11-11-11-----------|
A---0--0--0--0--0--0--0--0--0--0--0--------------------------|
E------------------------------------------------------------|

Almost there ...

Sign in to get your own page with links to favourite songs and more. You are just one click away...

Login with Facebook Login with Google