Log in

One click and you are in

Login with Facebook Login with Google

Why sign up and log in

Guitar Tabs Explorer
Born Of Osiris guitar tabs for The new reign

Solo tabs

Born of Osiris - The New Reign (Solo)
Tabbed by Joe Bieke

Drop A chord diagramD MajorD)

  Guitar I
D|----------------------------------------------------------||
A|----------------------------------------------------------||
F|--------9/10-9-7----------------------9/10-9-7-6-7-9-9-6--||
C|------7---------10-8-7-8/10---------7-------------------8-||
G|--8-10---------------------10-7-8-10---------------------7||
C|----------------------------------------------------------||\
 |Guitar II                                                   x5
D|--------------------------------------------------------||  /
A|--------------------------------------------------------||
F|--------5/7\5----------------------5/7\5------66--------||
C|-------------8-7-5---5/7----------------8-7-8----8-7-5--||
G|--5-7-8------------8-----7-4-5-7-8----------------------||
C|--------------------------------------------------------||

  Guitar I
D|---------------------------------------------------------------------------|
A|------13h15p13------13h17p13------13h15p13------13h17p13------13h15p13-----|
F|----14--------14--14--------14--14--------14--14--------14--14--------14---|
C|--15------------15------------15------------15------------15------------15-|
G|---------------------------------------------------------------------------|
C|---------------------------------------------------------------------------|
 |Guitar II
D|----5h6p5---5h8p5---5h6p5---5h8p5---5h6p5----3h5p3---3h6p3---3h5p3---3h6p3-|
A|---6-----6-6-----6-6-----6-6-----6-6-----6--5-----5-5-----5-5-----5-5------|
F|--7-------7-------7-------7-------7-------76-------6-------6-------6-------|
C|---------------------------------------------------------------------------|
G|---------------------------------------------------------------------------|
C|---------------------------------------------------------------------------|

  Guitar I
D|------------------------------------------------------------------------||
A|----11h13p11------11h14p11------11h13p11------11h14p11------11h13p11----||
F|--12--------12--12--------12--12--------12--12--------12--12--------12--||
C|14------------14------------14------------14------------14------------14||
G|------------------------------------------------------------------------||
C|------------------------------------------------------------------------||
 |Guitar II      x2
D|----3h5p3----||
A|-5-5-----5---||
F|--6-------6--||
C|-------------||
G|-------------||
C|-------------||

                              KEY
                        h - hammer on
                        p - pull off
                        \ - slide down

Almost there ...

Sign in to get your own page with links to favourite songs and more. You are just one click away...

Login with Facebook Login with Google