Search tabs and chords

Search for song, artist or band

Log in

One click and you are in

Login with Facebook Login with Google

Why sign up and log in

Guitar Tabs Explorer
Born Of Osiris guitar tabs for The new reign

Solo tabs

Born of Osiris - The New Reign (Solo)
Tabbed by Joe Bieke

Drop D chord diagramDD)

  Guitar I
D|----------------------------------------------------------||
A|----------------------------------------------------------||
F| chord diagramF|F|--------9/10-9-7----------------------9/10-9-7-6-7-9-9-6--||
C| chord diagramC|C|------7---------10-8-7-8/10---------7-------------------8-||
G|--8-10---------------------10-7-8-10---------------------7||
C| chord diagramC|C|----------------------------------------------------------||\
 |Guitar II                                                   x5
D|--------------------------------------------------------||  /
A|--------------------------------------------------------||
F| chord diagramF|F|--------5/7\5----------------------5/7\5------66--------||
C| chord diagramC|C|-------------8-7-5---5/7----------------8-7-8----8-7-5--||
G|--5-7-8------------8-----7-4-5-7-8----------------------||
C| chord diagramC|C|--------------------------------------------------------||

  Guitar I
D|---------------------------------------------------------------------------|
A|------13h15p13------13h17p13------13h15p13------13h17p13------13h15p13-----|
F| chord diagramF|F|----14--------14--14--------14--14--------14--14--------14--14--------14---|
C| chord diagramC|C|--15------------15------------15------------15------------15------------15-|
G|---------------------------------------------------------------------------|
C| chord diagramC|C|---------------------------------------------------------------------------|
 |Guitar II
D|----5h6p5---5h8p5---5h6p5---5h8p5---5h6p5----3h5p3---3h6p3---3h5p3---3h6p3-|
A|---6-----6-6-----6-6-----6-6-----6-6-----6--5-----5-5-----5-5-----5-5------|
F| chord diagramF|F|--7-------7-------7-------7-------7-------76-------6-------6-------6-------|
C| chord diagramC|C|---------------------------------------------------------------------------|
G|---------------------------------------------------------------------------|
C| chord diagramC|C|---------------------------------------------------------------------------|

  Guitar I
D|------------------------------------------------------------------------||
A|----11h13p11------11h14p11------11h13p11------11h14p11------11h13p11----||
F| chord diagramF|F|--12--------12--12--------12--12--------12--12--------12--12--------12--||
C|14 chord diagramC|14C|14------------14------------14------------14------------14------------14||
G|------------------------------------------------------------------------||
C| chord diagramC|C|------------------------------------------------------------------------||
 |Guitar II      x2
D|----3h5p3----||
A|-5-5-----5---||
F| chord diagramF|F|--6-------6--||
C| chord diagramC|C|-------------||
G|-------------||
C| chord diagramC|C|-------------||

                              KEY
                        h - hammer on
                        p - pull off
                        \ - slide down

Almost there ...

Sign in to get your own page with links to favourite songs and more. You are just one click away...

Login with Facebook Login with Google