Search tabs and chords

Search for song, artist or band

Log in

One click and you are in

Login with Facebook Login with Google

Why sign up and log in

Guitar Tabs Explorer
Born Of Osiris guitar tabs for Automatic motion

Guitar tabs

Automatic Motion



Please take note that the number of "-" between each note does not always reflect the
actual rythmic patterns.
I would advise listening carefully to the song to figure out the actual patterns, though
this tab should be a good starting point.

Riff A chord diagramAA

D|-----|--------------------------------------|
A|-----|--------------------------------------|
F| chord diagramF|F|---14|-------------10/12--10-12--10-12-12-14|
C| chord diagramC|C|-----|8-10-8-10-8---------------------------|
G|-----|--------------------------------------|X2
D|-----|--------------------------------------|
G|-----|--------------------------------------|

D|-----------------------------------------|
A|-----------------------------------------|
F| chord diagramF|F|----------------10/12--10-12--10-12-12-14|
C|10 chord diagramC|10C|10-12-12-10-12---------------------------|
G|-----------------------------------------|X2
D|-----------------------------------------|
G|-----------------------------------------|



Riff B chord diagramBB

D|------------------------------|--------------------------------|
A|------------------------------|--------------------------------|
F| chord diagramF|F|------------------------------|--------------------------------|
C| chord diagramC|C|------------------------------|--------------------------------|
G|5-5-5-5-----5-5---5-5--5--5-5-|8-8-8-8-----8-8---8-8---8-8-8---|
D|5-5-5-5-----5-5---5-5--5--5-5-|8-8-8-8-----8-8---8-8---8-8-8---|
G|5-5-5-5-----5-5---5-5--5--5-5-|8-8-8-8-----8-8---8-8---8-8-8---|
PM---------------------------------------------------------------|

D|-------------------------------------------|
A|-------------------------------------------|
F| chord diagramF|F|-------------------------------------------|
C| chord diagramC|C|-------------------------------------------|
G|13-13-13-13-----13-13---13-13--13--13-13---|
D|13-13-13-13-----13-13---13-13--13--13-13---|
G|13-13-13-13-----13-13---13-13--13--13-13---|
PM-------------------------------------------|

D|-------------------------------------------|
A|-------------------------------------------|
F| chord diagramF|F|-------------------------------------------|
C| chord diagramC|C|-------------------------------------------|
G|-------------------------------------------|
D|12-12-12-12-----12-12---12-12--12--12-12---|
G|13-13-13-13-----13-13---13-13--13--13-13---|
PM-------------------------------------------|




Riff C chord diagramCC

lead alone
D|---------------------------------------------------|
A|------------------------------17-19-20-19-17-------|
F| chord diagramF|F|---------------------16-17-19----------------19----|
C| chord diagramC|C|------------15-17-19-------------------------------|
G|15-15-15-19----------------------------------------|
D|---------------------------------------------------|
G|---------------------------------------------------|
PM---------------------------------------------------|


with both guitars
D|---------------------------------------------------|
A|------------------------------17-19-20-19-17-------|
F| chord diagramF|F|---------------------16-17-19----------------19----|
C| chord diagramC|C|------------15-17-19-------------------------------|
G|15-15-15-19----------------------------------------|
D|---------------------------------------------------|
G|---------------------------------------------------|
PM---------------------------------------------------|

D|------------------------------------------|
A|------------------------------17-19-------|
F| chord diagramF|F|---------------------16-17-19-------------|
C| chord diagramC|C|------------15-17-19----------------14----|
G|15-15-15-19-------------------------------|
D|------------------------------------------|
G|------------------------------------------|
PM------------------------------------------|

D|---------------------------------------------------|
A|------------------------------17-19-20-19-17-------|
F| chord diagramF|F|---------------------16-17-19----------------19----|
C| chord diagramC|C|------------15-17-19-------------------------------|
G|15-15-15-19----------------------------------------|
D|---------------------------------------------------|
G|---------------------------------------------------|
PM---------------------------------------------------|

D|------------------------------------------|
A|------------------------------17-19-20----|
F| chord diagramF|F|---------------------16-17-19-------------|
C| chord diagramC|C|------------15-17-19----------------------|
G|15-15-15-19-------------------------------|
D|------------------------------------------|
G|------------------------------------------|
PM------------------------------------------|

D|---------------------------------------------------|
A|------------------------------17-19-20-19-17-------|
F| chord diagramF|F|---------------------16-17-19----------------19----|
C| chord diagramC|C|------------15-17-19-------------------------------|
G|15-15-15-19----------------------------------------|
D|---------------------------------------------------|
G|---------------------------------------------------|
PM---------------------------------------------------|

D|-----------------------------------------17-19---|
A|---------------------------------17-19-20--------|
F| chord diagramF|F|------------------------16-17-19-----------------|
C| chord diagramC|C|---------------15-17-19--------------------------|
G|15-15-15-15-19-----------------------------------|
D|-------------------------------------------------|
G|-------------------------------------------------|
PM-------------------------------------------------|

D|20-19-17--------------------------------17-19-|
A|---------20-19-17-----------------15-17-------|
F| chord diagramF|F|------------------19-17---14-16---------------|
C| chord diagramC|C|------------------------0-------0-------------|
G|----------------------------------------------|
D|----------------------------------------------|
G|----------------------------------------------|
                          PM      PM

D|20-19-17--------------------------------15-19-|
A|---------20-19-17-----------------15-17-------|
F| chord diagramF|F|------------------19-17---14-16---------------|
C| chord diagramC|C|------------------------0-------0-------------|
G|----------------------------------------------|
D|----------------------------------------------|
G|----------------------------------------------|
                          PM      PM


D|------------------------------------------|------------------------------------------|
A|------------------------------------------|------------------------------------------|
F| chord diagramF|F|------------------------------------------|------------------------------------------|
C| chord diagramC|C|------------------------------------------|------------------------------------------|
G|13-13-13-13-----13-13---13-13---13-13-13--|13-13-13-13-----13-13---13-13--13--13-13--|X2
D|13-13-13-13-----13-13---13-13---13-13-13--|13-13-13-13-----13-13---13-13--13--13-13--|
G|13-13-13-13-----13-13---13-13---13-13-13--|13-13-13-13-----13-13---13-13--13--13-13--|
PM-------------------------------------------------------------------------------------|

D|-------------------------------------------|
A|-------------------------------------------|
F| chord diagramF|F|-------------------------------------------|
C| chord diagramC|C|-------------------------------------------|
G|13-13-13-13-----13-13---13-13---13-13-13---|X2
D|13-13-13-13-----13-13---13-13---13-13-13---|
G|13-13-13-13-----13-13---13-13---13-13-13---|
PM-------------------------------------------|

D|-------------------------------------------|
A|-------------------------------------------|
F| chord diagramF|F|-------------------------------------------|
C| chord diagramC|C|-------------------------------------------|
G|13-13-13-13-----13-13---13-13--13--13-13---|
D|13-13-13-13-----13-13---13-13--13--13-13---|
G|13-13-13-13-----13-13---13-13--13--13-13---|
PM-------------------------------------------|


Riff D chord diagramDD

D|---------------------------------|
A|---------------------------------|
F| chord diagramF|F|---------------------------------|
C| chord diagramC|C|---------------------------------|
G|1-1-1-1-----1-1-1-1-----1--1-1---|X2
D|1-1-1-1-----1-1-1-1-----1--1-1---|
G|1-1-1-1-----1-1-1-1-----1--1-1---|
PM---------------------------------|

D|-------------------------------------------------------------|
A|-------------------------------------------------------------|
F| chord diagramF|F|-------------------------------------------------------------|
C| chord diagramC|C|-------------------------------------------------------------|
G|1-1-1-1-----1-1-1-1-----1--1-1-1-1----1-1-1-1--1-1--1--1-1---|X4
D|1-1-1-1-----1-1-1-1-----1--1-1-1-1----1-1-1-1--1-1--1--1-1---|
G|1-1-1-1-----1-1-1-1-----1--1-1-1-1----1-1-1-1--1-1--1--1-1---|
PM-------------------------------------------------------------|


Riff E chord diagramEE (you can figure the rythm out)

D|----------------16-------------------------|--------------------------16--------20------|
A|/18---14-----------------------------------|----------------18---14--------18-----------|
F| chord diagramF|F|-----------14------------------------------|--------------------------------------------|
C| chord diagramC|C|---------------------15--\10--/11--\7------|/11---10--/15-------------------------------|
G|-------------------------------------------|--------------------------------------------|
D|-------------------------------------------|--------------------------------------------|
G|-------------------------------------------|--------------------------------------------|





Song structure:

A chord diagramAA X2
B chord diagramBB X2
A chord diagramAA X2
C chord diagramCC
D chord diagramDD
E chord diagramEE
A chord diagramAA (first part 3 times instead of 2)
A chord diagramAA X3

Almost there ...

Sign in to get your own page with links to favourite songs and more. You are just one click away...

Login with Facebook Login with Google