Log in

One click and you are in

Login with Facebook Login with Google

Why sign up and log in

Guitar Tabs Explorer
Born From Pain bass tabs for Rise or die

Bass tabs

Born From Pain - Rise or Die Bass Tab


Intro:

F#|------------------------------------------------------------------|
C#|------------------------------------------------------------------|
G#|------------------------------------------------------------------|
C#|00-00-00-00-11-44-22-00-00-00-00-00-11-11-11-11-11-44-22-00-00-00-|

2x after guitars 1st time.
Verse:

F#|--------------------------------------------------------------|
C#|--------------------------------------------------------------|
G#|-----2---2-----1---1---1----1/2-----6---6-----5---5-----------|
C#|-0-0---0---0-0---0---0----0-----0-0---0---0-0---0---0-1-3-1-0-|

4x


Chorus:

F#|-----------------------------------------------------|
C#|-----------------------------------------------------|
G#|-------------1-1-1-1/2-2-2-------------1-1-1-1/2-2-2-|
C#|-1-0-0--1-0----------------1-0-0--1-0----------------|

----------------------------------------------------------|
----------------------------------------------------------|
-------------1-1-1-1/2-2-2-----6---6-----5---5------------|
-1-0-0--1-0----------------0-0---0---0-0---0----0-1-3-1-0-|

2x

Verse:

F#|--------------------------------------------------------------|
C#|--------------------------------------------------------------|
G#|-----2---2-----1---1---1----1/2-----6---6-----5---5-----------|
C#|-0-0---0---0-0---0---0----0-----0-0---0---0-0---0---0-1-3-1-0-|

2x


Chorus:

F#|-----------------------------------------------------|
C#|-----------------------------------------------------|
G#|-------------1-1-1-1/2-2-2-------------1-1-1-1/2-2-2-|
C#|-1-0-0--1-0----------------1-0-0--1-0----------------|

----------------------------------------------------------|
----------------------------------------------------------|
-------------1-1-1-1/2-2-2-----6---6-----5---5------------|
-1-0-0--1-0----------------0-0---0---0-0---0----0-1-3-1-0-|

2x


Bridge:

F#|---------------------------------------|
C#|---------------------------------------|
G#|---------------------------------------|
C#|-0~------------------------3~--3-3-2~--|

2x

F#|-------------------------------------------------------------|
C#|-------------------------------------------------------------|
G#|-------------------------------------------------------------|
C#|-0-0---------0---0---------------0-0---------0---3~--3-3-2~--|

2x

F#|------------------------------------------------------------|
C#|------------------------------------------------------------|
G#|-----7-----5-----8-----------7-7-----7-----5----------------|
C#|-0-0---0-0---0-0---0-0-0-000-----0-0---0-0---0-0-3~--3-3-2~-|

4x (2x + 2x with guitar solo)


Outro:

F#|------------------------------------------------------------------|
C#|------------------------------------------------------------------|
G#|------------------------------------------------------------------|
C#|00-00-00-00-11-44-22-00-00-00-00-00-11-11-11-11-11-44-22-00-00-00-|
ⓘ Bass guitar tab for 'Rise Or Die' by Born From Pain, a thrash metal band formed in 1997

Almost there ...

Sign in to get your own page with links to favourite songs and more. You are just one click away...

Login with Facebook Login with Google