Log in

One click and you are in

Login with Facebook Login with Google

Why sign up and log in

Guitar Tabs Explorer
Born Again bass tabs for Born again

Bass tabs

  • Tuning: Standard tuning
  • Difficulty: Beginner
--------------------------------------------------------------------------
              Artist - Born Again
              **********************
               Song - Born Again
              *******************
            Album - Saintmotelevision (2016)
           **********************************
              Tabbed By - Ayreon77
             **********************
--------------------------------------------------------------------------

Tuning = Standard
00:12

INTRO
******
G|-------------------------|---------------------------|
D|-------------------------|-------------------5-------|
A|-----0---0-2---2-------5-|-5-0---0-2---2-------5--55-|
E|-0-3-------------3---3---|---------------3-----------|


--------------------------
00:22

VERSE 1
********
G|-----------------------|--------------------------|
D|-----------------------|------------------5-------|
A|-5-0---0-2---2-------5-|-5-0---0-2---2------5--55-|
E|---------------3---3---|---------------3----------|


G|-----------------------|----------------------|
D|-----------------------|------------------5---|
A|-5-0---0-2---2-------5-|-5-0---0-2---2------5-|
E|---------------3---3---|---------------3------|

--------------------------
00:42

CHORUS
*******
G|-------------------------------|------------------------|
D|---7------4------5------5--5-5-|---7------4------5------|
A|-------------------------------|------------------------|
E|-5---5--2---2--3---3--3--------|-5---5--2---2--3---3--3-|


--------------------------
00:52

VERSE 2
********
G|-----------------------|--------------------------|
D|-----------------------|------------------5-------|
A|-5-0---0-2---2-------5-|-5-0---0-2---2------5--55-|
E|---------------3---3---|---------------3----------|


G|-----------------------|----------------------|
D|-----------------------|------------------5---|
A|-5-0---0-2---2-------5-|-5-0---0-2---2------5-|
E|---------------3---3---|---------------3------|


--------------------------
01:11

CHORUS
*******
G|-------------------------------|--------------------------|
D|---7------4------5------5--5-5-|---7------4------5------5-|
A|-------------------------------|--------------------------|
E|-5---5--2---2--3---3--3--------|-5---5--2---2--3---3--3---|


G|-------------------------------|--------------------------|
D|---7------4------5------5--5-5-|---7------4------5--------|
A|-------------------------------|--------------------------|
E|-5---5--2---2--3---3--3--------|-5---5--2---2--3---3--3-3-|

01:31
G|--------------------------------|-----------------|--------------------|
D|----7-7-----7-7-----7-7-----7-7-|-----5-5-----5-5-|--------------------|
A|--------------------------------|-----------------|-5-5--5-5--5-5--5-5-|
E|-5-5----5-5-----5-5-----5-5-----|-3-3-----3-3-----|--------------------|


G|--------------------------------|-----------------|--------------------|
D|-----7-7-----7-7----7-7-----7-7-|-----5-5-----5-5-|--------------------|
A|--------------------------------|-----------------|-5-5--5-5--5-5--5-5-|
E|-5-5-----5-5----5-5-----5-5-----|-3-3-----3-3-----|--------------------|


--------------------------
02:10

BRIDGE - No Bass
*******

02:26 Fade In Slowly
G|------------------------------------------------|
D|------------------------------------------------|
A|-------------------------------------5--5--5--5-|
E|-5--5--5--5--5--5--5--5--3--3--3--3-------------|


--------------------------
02:31

CHORUS
*******
G|--------------------------------|-----------------|--------------------|
D|----7-7-----7-7-----7-7-----7-7-|-----5-5-----5-5-|--------------------|
A|--------------------------------|-----------------|-5-5--5-5--5-5--5-5-|
E|-5-5----5-5-----5-5-----5-5-----|-3-3-----3-3-----|--------------------|X4


ENJOY..........

Almost there ...

Sign in to get your own page with links to favourite songs and more. You are just one click away...

Login with Facebook Login with Google