Log in

One click and you are in

Login with Facebook Login with Google

Why sign up and log in

Guitar Tabs Explorer
Bootsys Rubber Band tabs for Hollywood squares

Hollywood Squares tab by Bootsys Rubber Band

Bootsys Rubber Band tabs for Hollywood squares

Guitar tabs

#-- File created with Instab - http://www.pconline.com/~smcarey/instab.html

Title: Hollywood Squares
Album: Bootsy: Player of The Year

These parts can be played on guitar and bass on the
same notes. I don't have everything but here are some of
the best known parts.

-|----------------------------------------------------------------------------
-|----------------------------------------------------------------------------
-|----------------------------------------------------------------------------
-|----------------------------------------------------------------------------
-|-5-7-8-7-5------------------------------------------------------------------
-|-----------6/19-18vvvvvv----------------------------------------------------
   intro

-|----------------------------------------------------------------------------
-|----------------------------------------------------------------------------
-|----------------------------------------------------------------------------
-|----------------------------------------------------------------------------
-|-----5------5-7/8------5-----5----------------------------------------------
-|-5h7----5h7--------5h7---5-7---5--------------------------------------------
  "Oh, Hollywood. Land of how do you do's, movie stars, take two's..."

-|----------------------------------------------------------------------------
-|----------------------------------------------------------------------------
-|----------------------------------------------------------------------------
-|----------------------------------------------------------------------------
-|----------5-5h7-8-7-5-7------------------------------------5--7--8--7-------
-|-6--6-5-5-----------------------------------------6--6-5-5------------------
   bridge/bassline          play a couple of times then

Almost there ...

Sign in to get your own page with links to favourite songs and more. You are just one click away...

Login with Facebook Login with Google