Log in

One click and you are in

Login with Facebook Login with Google

Why sign up and log in

Guitar Tabs Explorer
Boney M. bass tabs for Sunny

Bass tabs

Tuning: Standard (E A D G)


Intro:

G|---------|----------|-----------|----------|----------|----------|----------|-----------------|
D|---------|----------|---6--6--6-|----------|----------|----------|--6--6--6-|-----------------|
A|-3--3--3-|--6--6--6-|-----------|--5--5----|--3--3--3-|--6--6--6-|----------|--5--5---------2-|
E|---------|----------|-----------|--------3-|----------|----------|----------|--------3--3-5---|

Verse 1:

G|---------|-----------|----------|-----------------|----------|-----------|----------|----------------|
D|---------|-----------|--6--6--6-|-----------------|----------|-----------|--6--6--6-|--------5---5---|
A|-3-----3-|---6--6--6-|----------|---5--5---------2|--3--3--3-|---6--6--6-|----------|--5--5-----5-5--|
E|----3----|-----------|----------|---------3--3-5--|----------|-----------|----------|----------------|

G|---------|-----------|----------|-----------|------------|---------------|------------|--------------------|
D|---------|-----------|--6--6--6-|-----------|------------|-3h4-5-5-5-5-5-|------------|--------------------|
A|-3--3--3-|---6--6--6-|----------|---4--4--4-|--4-5--5--5-|---------------|-----3----1-|---------------0-2--|
E|---------|-----------|----------|-----------|------------|---------------|------------|---4----3--3-3------|


Verse 2:

G|---------|------------|-----------|-----------------|---------|-------------|-----------|----------------|
D|---------|------------|-5-6-----6-|-----------------|---------|-------------|-5-6-----6-|--------5---5---|
A|-3-----3-|--5-6-----6-|-------6---|-6-5--5------2---|--3----3-|-3h5-6-----6-|-------6---|--5-5-5----5-5--|
E|-----3---|--------6---|-----------|---------3-5---3-|-----3---|---------6---|-----------|----------------|


G|-----------3-5-|-------------8-|---------|------6-4h6--4h6---|------------|---------------|-5----3-------|
D|---------5-----|----------6h8--|-6--6-6--|----6------------6-|------------|-3-4-5-5-5-5-5-|------------5-|
A|-3-----3-------|-6-----6-------|-----6---|-4-----------------|--5--5--5-5-|---------------|--------6-8---|
E|-----3---------|-----6---------|---------|-------------------|-------5----|---------------|--------------|

G|-------------|
D|--6----------|
A|----------3--|
E|----4-4-6---4|

Verse 3:

G|------------6-|----------------|--------------|------------|-------------6--|--------7h8-9--|--------------|
D|---------4h6--|---------7h8-9--|-7--7-7-------|-------6-4--|----------4h6-6-|-------------9-|-7--7-7----7--|
A|-4-----4------|-7----7--------7|-----7------4-|-6-6------6-|--4-----4-------|-7-----7-------|-----7---7---7|
E|-----4--------|----7-----------|--------5-7---|-----4-----4|------4---------|-----7---------|--------------|

G|-8--------------|
D|---8---6--------|
A|-----6--------3-|
E|----------4-6---|


G|-----------4-6-|-------------|------------|-------------|-----6h8-6------|-----------|--------|------------|
D|----------6---6|-------------|------------|--------4h6--|----8------8---8|-6-6---6-6-|--------|----------6-|
A|-4-----4-------|-7-----7---7-|----4--5--7-|-5--5-5-----5|-6-----------6--|-----6-----|-4---2--|--------6---|
E|-----4---------|-----7---4---|-5----------|-----5-------|----------------|-----------|--------|--5---4-----|


Instrumental:

G|------------4-6-|----------------|--------------|-------------|------6-----6--|-------------------|--------|
D|----------6-----|--------6-7-9--6|--7----7------|-------------|-----6----6---6|-----------6-7-9--6|-7--7-7-|
A|-4-----4--------|-7-----7------7-|-----7----7---|-6--6-----3--|--4-----4------|--7-----7--------7-|-----7--|
E|-----4----------|-----7----------|-------------5|-------4-6--4|---------------|------7------------|--------|

G|-------|-8------------|
D|-7---7-|---8--6--6---6|
A|---7---|----6------6--|
E|-------|--------------|


G|-----6-----------|-9-7-6-------|---------------|-----------6---|-8-----------|------------|----------------|
D|----6--6---------|-------9---6-|-7--7----------|---------7---7-|---8------8--|-6-6-6-6-6--|----------------|
A|-4-------4-5-6/7-|---------7---|-----7------4--|--5-5-5--------|-----6--6---6|------------|-4--4-7----7----|
E|-----------------|-------------|-------5--7---5|-----5---------|-------------|------------|---------7---7--|

G|---------------|
D|----------7----|
A|--------7---7--|
E|-5--5-5--------|


Verse 4:

G|------------7-|-10-10-------------|-------------|--------------------|--------|-----------|
D|---------5h7--|------10-----------|-8--8-8---8--|-----------7-7------|--------|-----------|
A|5-----5-------|---------8-10-8-10-|-----8--8---8|-7-7-7-7h10---7-6-5-|-5-5-5--|-----------|
E|----5---------|-------------------|-------------|--------------------|--5---5/|1--3--4--5-|

G|------------------------|
D|-----8------5-6-7-7--7-7|
A|----8--8---7----------7-|
E|-6-6----6---------------|


G|-------------7-9-|10-10--10-8-8--8-7-7--7---------|--------------|---------|------9--7----|----------|
D|----------5h7----|-----------------------10-10-10-|-8--6---------|---------|-----------9--|7-7-7-7-7-|
A|-5-----5---------|--------------------------------|------8-------|-6-----6-|--8-7--------7|----------|
E|-----5-----------|--------------------------------|--------6--6-8|-----6---|--------------|----------|

G|--------------------------|
D|------------------5h7-5---|
A|-5--5-------------------7-|
E|-----8--8-6--6-5----------|


G|-------------7\-|-----------------|------------|-----9-------|---------7----|-------7-9-10---|
D|-----------7----|--3--3--3--------|------8-----|----9--9-7---|--------7-7---|--------------10|
A|-5-----5--------|-------3-----3-0-|-----8---8--|-5/7-------7\|5--5-5-----5/7|-8--8-8---------|
E|-----5----------|-----------1-----|--6-------6-|-------------|----5---------|-----8----------|

G|------------|9-----------|
D|-8--8-8-8---|-9--9-7---7-|
A|-----8----8-|--7-----7---|
E|------------|------------|


G|----------|--------------|--------------|-----8-----|---------------|-----------|
D|----------|---3---5---6--|-----8--6-----|---8---8---|-------------5-|7-7-7-7-7--|
A|-5--5-5---|--------------|---8------8-5-|-6-------6-|-7----7--5-7---|-----------|
E|-----5--5\|1---1---3---4-|-6------------|-----------|----7----------|-----------|


Outro:

G|------------|---------------|
D|-----5--5-5-|---------------|  x4/til fadeout
A|-5--5-------|3h4-5-----2-3--|
E|------------|------5-3------|


************************************

| h Hammer-on
| / Slide up
| \ Slide down

************************************

Almost there ...

Sign in to get your own page with links to favourite songs and more. You are just one click away...

Login with Facebook Login with Google