Log in

One click and you are in

Login with Facebook Login with Google

Why sign up and log in

Guitar Tabs Explorer
Boney M. bass tabs for Rasputin

Bass tabs

128BPM, 4/4


Intro:

G|---------|---------|
D|---------|---------|
A|---------|---------|
E|---------|---------|

G|---------|---------|---------|---------|
D|---------|---------|---------|---------|
A|---------|---------|---------|---------|
E|---------|---------|---------|---------|

G|--------------|--------------|--------------|---------------|
D|--------------|--------------|-2--2--2------|-2-------------|
A|-2--2--2------|-2--2--2--4-5-|----------4-5-|----5-4-2------|
E|----------2-5-|--------------|--------------|-----------2-5-|

G|--------------|--------------|--------------|--------------|
D|--------------|--------------|-2--2--2------|-2------------|
A|-2--2--2------|-2--2--2--4-5-|----------4-5-|----5-4-2-----|
E|----------2-5-|--------------|--------------|-----------2--|

G|----------|---------|---------|---------|
D|----------|---------|---------|---------|
A|-2--------|---------|---------|---------|
E|----------|---------|---------|---------|

G|-4-4-4-2--2-2-2-|----------------|-4-4-4-2--2-2-2-|----------------|
D|----------------|-5-5-5-4--4-4-4-|----------------|-5-5-5-4--4-4-4-|
A|----------------|----------------|----------------|----------------|
E|----------------|----------------|----------------|----------------|

G|-4-4-4-4--4-4-4-|-4-4-4------2--|-4-4-4-4--4-4-4-|-4-4-4------2--|
D|----------------|-------4--4----|----------------|-------4--4----|
A|----------------|---------------|----------------|---------------|
E|----------------|---------------|----------------|---------------|

Verse:

G|-4-4-4-4--4-4-4-|-4-4-4-4--4-----|----------------|---------------2-|
D|----------------|----------------|-2-2-2-2--2-----|-4-4-------2-4---|
A|----------------|------------4-5-|------------4-5-|-------4-2-------|
E|----------------|----------------|----------------|-----2-----------|

G|-4-4-4-4--4-4-4-|-4-4---4--4-----|----------------|---------------2-|
D|----------------|-----4----------|-2-2-2-2--2-----|-4-4-------2-4---|
A|----------------|------------4-5-|------------4-5-|-------4-2-------|
E|----------------|----------------|----------------|-----2-----------|

G|-4-4-2-4--4---2-|-4-4-2-4--4---2-|----------------|-----1-1-3-3-----|
D|------------4---|------------4---|-2-2---2--2---2-|-4-4---------4-4-|
A|----------------|----------------|-----5------5---|-----------------|
E|----------------|----------------|----------------|-----------------|

G|-4-4-2-4--4---2-|-4-4-2-4--4---2-|----------------|-----------------|
D|------------4---|------------4---|-2---2-4-4-4----|---------2-2-4-4-|
A|----------------|----------------|---5----------1-|-2-2-5-5---------|
E|----------------|----------------|----------------|-----------------|


Chorus:

G|-----------------|-------2-4---4-3-|-2--2-1------1-|-4---2-4----2-4-|
D|---------------1-|-2-2-2-----4-----|--------2--2---|---4------4-----|
A|-2-2-2-4-5-5-5---|-----------------|---------------|----------------|
E|-----------------|-----------------|---------------|----------------|

G|---------------|------2-4---4-3-|-2--2-1------1-|-4---2-4--4---2-|
D|-------------1-|-2--2-----4-----|--------2--2---|---4--------4---|
A|-2--2-4-5--5---|----------------|---------------|----------------|
E|---------------|----------------|---------------|----------------|

G|-4---2-4\------|
D|---4-----------|
A|------------2--|
E|---------------|

G|-4-4-4-4--4-4-4-|-4-4-4------2-2-|-4-4-4-4--4-4--|-4-4-4------2-2-|
D|----------------|-------4--4-----|---------------|-------4--4-----|
A|----------------|----------------|---------------|----------------|
E|----------------|----------------|---------------|----------------|

G|-4-4-4-4--4---2-|-4-4-4-4--4-----|----------------|---------------2-|
D|------------2---|----------------|-2-2-2-2--2-----|-4-4-------2-4---|
A|----------------|------------4-5-|------------4-5-|---------2-------|
E|----------------|----------------|----------------|-----2-5---------|


Verse:

G|-4-4-4-4--4-4-4-|-4-4-4-4--4-----|----------------|---------------2-|
D|----------------|----------------|-2-2-2-2--2-----|-4-4-------2-4---|
A|----------------|------------4-5-|------------4-5-|-------4-2-------|
E|----------------|----------------|----------------|-----2-----------|

G|-4-4-4-4--4-4-4-|-4-4-4-4--4-----|----------------|---------------2-|
D|----------------|----------------|-2-2-2-2--2-----|-4-4-------2-4---|
A|----------------|------------4-5-|------------4-5-|-------4-2-------|
E|----------------|----------------|----------------|-----2-----------|

G|-4-4-2-4--4---2-|-4-4-2-4--------|----------------|-----1-1-3-3-----|
D|------------4---|----------------|-2-2---2--2---2-|-4-4---------4-4-|
A|----------------|----------2-4-5-|-----5------5---|-----------------|
E|----------------|----------------|----------------|-----------------|

G|-4-4-2-4--4---2-|-4-4-2-4--4-----|----------------|-----------------|
D|------------4---|----------------|-2---2-4--4-----|---------2-2-4-4-|
A|----------------|------------2-5-|---5----------4-|-2-2-5-5---------|
E|----------------|----------------|------------2---|-----------------|


Chorus:

G|-----------------|------2-4---4-3-|-2--2-1-----1-|-4---2-4----2-4-|
D|---------------1-|-2--2-----4-----|--------2-----|---4------4-----|
A|-2-2-2-4-5-5-5---|----------------|--------------|----------------|
E|-----------------|----------------|--------------|----------------|

G|-----------------|------2-4---4-3-|-2--2-1-------1-|-4---2-4--4---2-|
D|---------------1-|-2--2-----4-----|--------2-2-2---|---4--------4---|
A|-2-2-2-4-5-5-5---|----------------|----------------|----------------|
E|-----------------|----------------|----------------|----------------|

G|-4---2-4\-------|
D|---4------------|
A|----------------|
E|------------7\--|


Bridge:

G|----------|----------|-----------|----------|
D|----------|----------|-----------|----------|
A|-2--------|----------|-2---------|-2--------|
E|----------|-5--------|------5----|----------|

G|----------|----------|-----------|-------4---2-|
D|----------|----------|-----------|---------4---|
A|-2--------|-4--------|-2---------|-2-----------|
E|----------|----------|------5----|-------------|

G|-4-4--4--4-4-4-|-4-4-4------2--|-4-4-4-4--4-4-4-|-4-4-------2--|
D|---------------|-------4--4----|----------------|------4--4----|
A|---------------|---------------|----------------|--------------|
E|---------------|---------------|----------------|--------------|

G|-4-4-4-4--4-4-4-|-4-4-4------2--|-4-4-4-4--4-4-4-|-4-4-4------2--|
D|----------------|-------4--4----|----------------|-------4--4----|
A|----------------|---------------|----------------|---------------|
E|----------------|---------------|----------------|---------------|

G|-4-4-4-4--4---2-|-4-4-4-4--4-----|----------------|---------------2-|
D|------------4---|----------------|-2-2-2-2--2-----|-4-4-------2-4---|
A|----------------|------------4-5-|------------4-5-|-------4-2-------|
E|----------------|----------------|----------------|-----2-----------|


Verse:

G|-4-4-4-4--4-4-4-|-4-4-4-4--4-----|----------------|--------------2-|
D|----------------|----------------|-2-2-2-2--2-----|-4-4--------4---|
A|----------------|------------4-5-|------------4-5-|-------4-2------|
E|----------------|----------------|----------------|-----2----------|

G|-4-4-4-4--4-4-4-|-4-4-4-4--4-----|----------------|---------------2-|
D|----------------|----------------|-2-2-2-2--2-----|-4-4-------2-4---|
A|----------------|------------4-5-|------------4-5-|-------4-2-------|
E|----------------|----------------|----------------|-----2-----------|

G|-4-4-2-4--4---2-|-4-4-2-4--4-----|----------------|-----1-1-3-3-----|
D|------------4---|----------------|-2-2---2--2---2-|-4-4---------4-4-|
A|----------------|------------4-5-|-----5------5---|-----------------|
E|----------------|----------------|----------------|-----------------|

G|-4-4-2-4--4---2-|-4-4-2-4--4-----|----------------|-----------------|
D|------------4---|----------------|-2---2-4--4-----|---------2-2-4-4-|
A|----------------|------------4-5-|---4------------|-2-2-5-5---------|
E|----------------|----------------|------------2-5-|-----------------|


Chorus:

G|---------------|------2-4---4-3-|-2-2-2-1------1-|-4---2-4----2-4-|
D|-------------1-|-2--2-----4-----|---------2--2---|---4------4-----|
A|-2--2-4-5--5---|----------------|----------------|----------------|
E|---------------|----------------|----------------|----------------|

G|---------------|------2-4---4-3-|-2--2-1------1-|-4---2-4--4---2-|
D|-------------1-|-2--2-----4-----|--------2--2---|---4--------4---|
A|-2--2-4-5--5---|----------------|---------------|----------------|
E|---------------|----------------|---------------|----------------|

G|-4---2-4-------|
D|---4-----------|
A|-----------5\--|
E|---------------|


Ending:

G|---------------|------2-4---4-3-|-2--2-1------1-|-4---2-4----2-4-|
D|-------------1-|-2--2-----4-----|--------2--2---|---4------4-----|
A|-2--2-4-5--5---|----------------|---------------|----------------|
E|---------------|----------------|---------------|----------------|

G|---------------|------2-4---4-3-|-2--2-1------1-|-4---2-4--4---2-|
D|-------------1-|-2--2-----4-----|--------2--2---|---4--------4---|
A|-2--2-4-5--5---|----------------|---------------|----------------|
E|---------------|----------------|---------------|----------------|

G|-4---2-4\------|---------|---------|---------||
D|---4-----------|---------|---------|--------o||
A|------------2--|---------|---------|--------o||
E|---------------|---------|---------|---------||


************************************

| \ Slide down

************************************

Almost there ...

Sign in to get your own page with links to favourite songs and more. You are just one click away...

Login with Facebook Login with Google