Log in

One click and you are in

Login with Facebook Login with Google

Why sign up and log in

Guitar Tabs Explorer
Boney M. bass tabs for Ma baker

Bass tabs

Tuning: Standard (E A D G)

Boney M. - Ma baker


Intro:
G |-----------------|-----------------|-----------------|-----------------|
D |-----------------|-----------------|-----------------|-----------------|
A |-5-5---5-4-4---4-|-3-3---3-4-4---4-|-5-5---5-3-3---3-|-1-1---1-0-0---0-|
E |-----5-------4---|-----3-------4---|-----5-------3---|-----1-------0---|x2


Intro Verse: (2x)

(0.20)
G |------------------------------------|
D |------------------------------------|
A |--0-5-5-0-3--0-3-0--3-3-0-5--X-5-5--|
E |------------------------------------| x2

G |-----------------------------------|
D |-----------------------------------|
A |--0-3-3-0-5--5-3-0-3-3-0-5--X-5-5--|
E |-----------------------------------| x1


Verse 1: 2x

(0.42)
G |------------------------------------|
D |------------------------------------|
A |--0-5-5-0-3--0-3-0--3-3-0-5--X-5-5--|
E |------------------------------------| x2

G |-----------------------------------|
D |-----------------------------------|
A |--0-3-3-0-5--5-3-0-3-3-0-5--X-5-5--|
E |-----------------------------------| x1

CHORUS:
(1.05)
G |------------------------------------|
D |------------------------------------|
A |--X-5-5-0-3--0-3-3-1-1--1-0--0-1-0--|
E |------------------------------------|x1

G |----------------------------------|
D |----------------------------------|
A |--5-5-0-3--0-3-3-1-1--1-0--0-X-0--|
E |----------------------------------|x2

(1.16)
G |-----------------------------------------------------|
D |-----------------------------------------------------|
A |--5-5-0-3--0-3-0-3-3-3-5~--3-5~--5-3-3--3-5---5-0-3--|
E |-----------------------------------------------------|x1


Intro Verse: (2x)

(1.24)
G |------------------------------------|
D |------------------------------------|
A |--X-5-5-0-3--0-3-0--3-3-0-5--X-5-5--|
E |------------------------------------| x2

G |-----------------------------------|
D |-----------------------------------|
A |--0-3-3-0-5--5-3-0-3-3-0-5--X-5-5--|
E |-----------------------------------| x1


Verse 2:

(1.46)
G |------------------------------------|
D |------------------------------------|
A |--X-5-5-0-3--0-3-0--3-3-0-5--X-5-5--|
E |------------------------------------| x2

G |-----------------------------------|
D |-----------------------------------|
A |--0-3-3-0-5--5-3-0-3-3-0-5--X-5-5--|
E |-----------------------------------| x1


CHORUS:
(1.05)
G |------------------------------------|
D |------------------------------------|
A |--X-5-5-0-3--0-3-3-1-1--1-0--0-1-0--|
E |------------------------------------|x1

G |----------------------------------|
D |----------------------------------|
A |--5-5-0-3--0-3-3-1-1--1-0--0-X-0--|
E |----------------------------------|x2

G |-----------------------------------------------------|
D |-----------------------------------------------------|
A |--5-5-0-3--0-3-0-3-3-3-5~--3-5~--5-3-3--3-5---5-0-3--|
E |-----------------------------------------------------|x1


VERSE 3:
(2.17)
G |------------------------------------|   |-----------------------------------|
D |------------------------------------|   |-----------------------------------|
A |--X-5-5-0-3--0-3-0--3-3-0-5--X-5-5--|   |--0-3-3-0-5--5-3-0-3-3-0-5--X-5-5--|
E |------------------------------------| x2 |-----------------------------------| x1


BRIDGE:

(2.28)
G |--------------------|
D |--------------------|
A |-5---3---5---1---0--|
E |--------------------| x2


Intro Verse:

(2.42)
G |------------------------------------|   |-----------------------------------|
D |------------------------------------|   |-----------------------------------|
A |--X-5-5-0-3--0-3-0--3-3-0-5--X-5-5--|   |--0-3-3-0-5--5-3-0-3-3-0-5--X-5-5--|
E |------------------------------------| x2 |-----------------------------------| x1


Intro RIFF:
G |-----------------|-----------------|-----------------|-----------------|
D |-----------------|-----------------|-----------------|-----------------|
A |-5-5---5-4-4---4-|-3-3---3-4-4---4-|-5-5---5-3-3---3-|-1-1---1-0-0---0-|
E |-----5-------4---|-----3-------4---|-----5-------3---|-----1-------0---|x2


Intro Verse:

G |------------------------------------|   |-----------------------------------|
D |------------------------------------|   |-----------------------------------|
A |--0-5-5-0-3--0-3-0--3-3-0-5--X-5-5--|   |--0-3-3-0-5--5-3-0-3-3-0-5--X-5-5--|
E |------------------------------------| x2 |-----------------------------------| x1


Verse 4: (2x)
G |------------------------------------|   |-----------------------------------|
D |------------------------------------|   |-----------------------------------|
A |--X-5-5-0-3--0-3-0--3-3-0-5--X-5-5--|   |--0-3-3-0-5--5-3-0-3-3-0-5--X-5-5--|
E |------------------------------------| x2 |-----------------------------------| x1


CHORUS:

(1.05)
G |------------------------------------|
D |------------------------------------|
A |--X-5-5-0-3--0-3-3-1-1--1-0--0-1-0--|
E |------------------------------------|x1

G |----------------------------------|
D |----------------------------------|
A |--5-5-0-3--0-3-3-1-1--1-0--0-X-0--|
E |----------------------------------|x2

G |-----------------------------------------------------|
D |-----------------------------------------------------|
A |--5-5-0-3--0-3-0-3-3-3-5~--3-5~--5-3-3--3-5---0-3-0--|
E |-----------------------------------------------------|x1


OUTRO:
G |---------------------------------------------------------------------|
D |---------------------------------------------------------------------|
A |---0-5-5-0-3--0-3-0--3-3-0-5--X-5-5---0-5-5-0-3--3-3--3-0-3-5---3-5--|
E |---------------------------------------------------------------------|x1






************************************

| x  Dead note
| h  Hammer-on
| p  Pull-off
| /  Slide up
| \  Slide down
| ~  Vibrato


************************************

Almost there ...

Sign in to get your own page with links to favourite songs and more. You are just one click away...

Login with Facebook Login with Google