Log in

One click and you are in

Login with Facebook Login with Google

Why sign up and log in

Guitar Tabs Explorer
Bone Thugs N Harmony tabs for Tha crossroads

Guitar tabs

Title: Tha Crossroads
/ slide up

Chords Only Strum

Standard Tuning
-----|-15/19----15/19------19----19-------19-|--------------------------------|
-----|-------17---------17----17-------17----|--------------------------------|
-----|---------------------------------------|--------------------------------|
-----|---------------------------------------|--------------------------------|
-----|---------------------------------------|--------------------------------|
-----|---------------------------------------|--------------------------------|
      Intro

-----|-7-------|-7---7---7---7---|--|-0---0----|-0-----------|-0---0---|------|
-----|-0-------|-0---0---0---0---|--|-0---0----|-0-----------|-x---x---|------|
-----|-x-------|-x---x---x---x---|--|-x---x----|-x-----------|-4---4---|------|
-----|-9-------|-9---9---9---9---|--|-9---9----|-9-----------|-2---2---|------|
-----|-7-------|-7---x---7---7---|--|-7---x----|-7-----------|-2---0---|------|
-----|-x-------|-x---7---x---x---|--|-x---7----|-x-----------|-x---x---|------|

Almost there ...

Sign in to get your own page with links to favourite songs and more. You are just one click away...

Login with Facebook Login with Google