Log in

One click and you are in

Login with Facebook Login with Google

Why sign up and log in

Guitar Tabs Explorer
Joe Bonamassa bass tabs for You upset me baby

Bass tabs with lyrics

Joe Bonamassa
You upset me Baby

Bass Line, Key: A
Intro:                           Bass notes
G|-------------|-------------|-------------|-------------|-
D|-------------|-------------|-------------|-------------|-
A|-------------|-------------|-------------|-------------|-
E|-5--0--3--4r-|-5--0--3--4r-|-5--0--3--4r-|-5--0--3--5r-|- A A A A

G|-------------|-------------|-------------|-------------|-
D|-------------|-------------|-------------|-------------|-
A|-5-----3--4r-|-5-----3--5r-|-------------|-------------|- D D
E|----5--------|----5--------|-5--0--3--4r-|-5--0--3--5r-|-   A A

G|-------------|-------------|-------------|-------------|-
D|-------------|-------------|-------------|-------------|-
A|-7-----5--7r-|-5-----3--5r-|-------------|-------------|- E D
E|----7--------|----5--------|-5--0--3--4r-|-5--5--5--5r-|-   A A


Verse 1: 00:23
G|-------------|-------------|-------------|-------------|-
D|-------------|-------------|-------------|-------------|-
A|-------------|-------------|-------------|-------------|-
E|-5--0--3--4r-|-5--0--3--4r-|-5--0--3--4r-|-5--0--3--5r-|- A A A A
Yes, she's 36 in the bust, 28 in the waist,
44 in the hip, she got a real crazy leg
G|-------------|-------------|-------------|-------------|-
D|-------------|-------------|-------------|-------------|-
A|-5-----3--4r-|-5-----3--5r-|-------------|-------------|- D D
E|----5--------|----5--------|-5--0--3--4r-|-5--0--3--5r-|-   A A
You upsets me baby, yes, you upsets me baby

G|-------------|-------------|-------------|-------------|-
D|-------------|-------------|-------------|-------------|-
A|-7-----5--7r-|-5-----3--5r-|-------------|-------------|- E D
E|----7--------|----5--------|-5--0--3--4r-|-5--5--5--5r-|-   A A
Like being hit by a fallen tree,
Woman, what do you do to me,

Verse2: 00:48
G|-------------|-------------|-------------|-------------|-
D|-------------|-------------|-------------|-------------|-
A|-------------|-------------|-------------|-------------|-
E|-5--0--3--4r-|-5--0--3--4r-|-5--0--3--4r-|-5--0--3--5r-|- A A A A
Well, she's not too tall, complexion is fair,
man she knocked me out the way she wears her hair

G|-------------|-------------|-------------|-------------|-
D|-------------|-------------|-------------|-------------|-
A|-5-----3--4r-|-5-----3--5r-|-------------|-------------|- D D
E|----5--------|----5--------|-5--0--3--4r-|-5--0--3--5r-|-   A A
You upsets me baby, Yes, you upsets me baby

G|-------------|-------------|-------------|-------------|-
D|-------------|-------------|-------------|-------------|-
A|-7-----5--7r-|-5-----3--5r-|-------------|-------------|- E D
E|----7--------|----5--------|-5--0--3--4r-|-5--5--5--5r-|-   A A
Like being hit by a fallen tree,
woman, woman what you do to me

Instrumental(1): 01:10 (Play x 2)
G|-------------|-------------|-------------|-------------|-
D|-------------|-------------|-------------|-------------|-
A|-------------|-------------|-------------|-------------|-
E|-5--0--3--4r-|-5--0--3--4r-|-5--0--3--4r-|-5--0--3--5r-|- A A A A

G|-------------|-------------|-------------|-------------|-
D|-------------|-------------|-------------|-------------|-
A|-5-----3--4r-|-5-----3--5r-|-------------|-------------|- D D
E|----5--------|----5--------|-5--0--3--4r-|-5--0--3--5r-|-   A A

G|-------------|-------------|-------------|-------------|-
D|-------------|-------------|-------------|-------------|-
A|-7rr------6r-|-5rr---------|-------------|-------------|- E E
E|-------------|-------------|-5--0--3--4r-|-5--5--5--5r-|-   A A

Then play: 01:55
G|-------------|-------------|-------------|-------------|-
D|-------------|-------------|-------------|-------------|- A A A
A|-------------|-------------|-------------|-0--2--3--4r-|- A B C C+
D|-5--0--3--4r-|-5--0--3--4r-|-5--0--3--5r-|-------------|-

G|-------------|-------------|-------------|-------------|-
D|-------------|-------------|-------------|-------------|- D A B Eb
A|-5--0--2--6r-|-5--0--2--4r-|-------------|-------------|-  D A B Db
E|-------------|-------------|-5--0--3--4r-|-5--0--3--5r-|-    A A

G|-------------|-------------|-------------|-------------|- E E E Eb
D|-------------|-------------|-------------|-------------|- D A B Db
A|-7--7--7--6r-|-5--0--2--4r-|-0--7--------|-------------|- A E F+ Ab
E|-------------|-------------|-------2--4r-|-0--0--0--0r-|- E E E E

and
G|-------------|-------------|-------------|-------------|-
D|-------------|-------------|-------------|-------------|-
A|-------------|-------------|-------------|-------------|-
E|-5--0--3--4r-|-5--0--3--4r-|-5--0--3--4r-|-5--0--3--5r-|- A A A A

G|-------------|-------------|-------------|-------------|-
D|-------------|-------------|-------------|-------------|-
A|-5-----3--4r-|-5-----3--5r-|-------------|-------------|- D D
E|----5--------|----5--------|-5--0--3--4r-|-5--0--3--5r-|-   A A

G|-------------|-------------|-------------|-------------|-
D|-------------|-------------|-------------|-------------|-
A|-7rr------6r-|-5rr---------|-------------|-------------|- E E
E|-------------|-------------|-5--0--3--4r-|-5--5--5--5r-|-   A A


Verse 3: 02:41
G|-------------|-------------|-------------|-------------|-
D|-------------|-------------|-------------|-------------|-
A|-------------|-------------|-------------|-------------|-
E|-5--0--3--4r-|-5--0--3--4r-|-5--0--3--4r-|-5.----------|- A A A A
Well I, tried to describe her, it's hard to start
I better stop now because I got a weak heart
G|-------------|-------------|-------------|-------------|-
D|-------------|-------------|-------------|-------------|-
A|-5-----3--4r-|-5-----3--5r-|-------------|-------------|- D D
E|----5--------|----5--------|-5--0--3--4r-|-5--0--3--5r-|-   A A
You upsets me, well, you upsets me baby

G|-------------|-------------|-------------|-------------|-
D|-------------|-------------|-------------|-------------|-
A|-7rr---5--7r-|-5-----3--5r-|-------------|-------------|- E E
E|----x--------|----5--------|-5--0--3--4r-|-5--5--5--5r-|-   A A
Well like being hit by a fallen tree,
woman, what you do to me


Instrumental(2): 03:05

G|-------------|-------------|-------------|-------------|-
D|-------------|-------------|-------------|-------------|-
A|-------------|-------------|-------------|-0--2--3--4r-|-
E|-5--0--3--4r-|-5--0--3--4r-|-5--0--3--4r-|-------------|- A A A A

G|-------------|-------------|-------------|-------------|-
D|-------------|-------------|-------------|-------------|-
A|-5-----3--4r-|-5-----3--5r-|-------------|-------------|- D D
E|----5--------|----5--------|-5--0--3--4r-|-5--0--3--5r-|-   A A

G|-------------|-------------|-------------|------- -----|-
D|-------------|-------------|-------------|------- -----|-
A|-7rr------6r-|-5rr---------|-------------|--12rr- -----|- E E  A
E|-------------|-------------|---6/5-------|------- -5rr-|-   Bb  A

End: 03:36

Almost there ...

Sign in to get your own page with links to favourite songs and more. You are just one click away...

Login with Facebook Login with Google